Blink 182

home > Blink 182

Stay Together For The Kidz Drum Tab

Blink 182

Difficulty: nolevelnolevel

tuner correct add songbook print version text version save to e-mail
chordsukulelecavacokeyboardtabbassdrummharmonicsflute Guitar Pro
chords

Stay Together For The Kidz

  		






--------------------------------------
Stay Together For The Kids - BLINK 182
--------------------------------------

Album  : Take Off You Pants And Jacket
Drummer: Travis Barker
Tabber : Paul Golik
Timing : 4/4
Tabber: Paul Golik - [email protected] - http://mp3.com/dj_forge

Intro
      ____8 times___
     /              \
Cym |----------------|
S   |----------------|
B   |----------------|


Verse 1
                                        ____________7 times____________
                                       /                               \
HH  |x---x---x---x---|x---x---x---o---|=---x---x---x---|x---x---x---o---|
S   |--------o---o---|--o-----o-------|--------o---o---|--o-----o-------|
B   |0---0---------0-|------0---------|0---0---------0-|------0---------|


Chorus 1

Cym |X-X-X-X-X-X-X-X-|X-X-X-X-X-X-X-X-|#---X-X-X-X-X-X-|X-X-X-X-X-X-X-X-|
S   |--------o-------|--------o-------|--------o-------|--------o-------|
B   |0-0-0-0---0-0-0-|--0-0-0---0-0---|0-0-0-0---0-0-0-|--0-0-0---0-0---|

Cym |#---X-X-X-X-X-X-|X-X-X-X-X-X-X-X-|#---X-X-X-X-X-X-|----------------|
T   |----------------|----------------|----------------|----oooo--oo----|
S   |--------o-------|--------o-------|--------o-------|--oo----oo------|
FT  |----------------|----------------|----------------|------------oooo|
B   |0-0-0-0---0-0-0-|--0-0-0---0-0---|0-0-0-0---0-0-0-|----------------|

Cym |#---X-X-X-X-X-X-|X-X-X-X-X-X-X-X-|#---X-X-X-X-X-X-|X-X-X-X-X-X-X-X-|
S   |--------o-------|--------o-------|--------o-------|--------o-------|
B   |0-0-0-0---0-0-0-|--0-0-0---0-0---|0-0-0-0---0-0-0-|--0-0-0---0-0---|

Cym |#---X-X-X-X-X-X-|X-X-X-X-X-X-X-X-|#---X-X-X-X-X-X-|----------------|
T   |----------------|----------------|----------------|----oooo--oo----|
S   |--------o-------|--------o-------|--------o-------|--oo----oo------|
FT  |----------------|----------------|----------------|------------oooo|
B   |0-0-0-0---0-0-0-|--0-0-0---0-0---|0-0-0-0---0-0-0-|----------------|


Repeat intro for pt 1


Repeat verse 1 for verse 2


Repeat chorus 1 for chorus 2


Interlude

Cym |X-------------------------------|--------------------------------|
S   |--------g---O---g---g---O---gggg|g---g---g---O---g---g---O---gggg|
B   |0-------------------------------|0-------------------------------|

      ____________13 times__________
     /                              \
S   |--------g---O---g---g---O---gggg|g---g---g---O---O---g---F-------|
B   |0-------------------------------|0-------------------0-----------|

Cym |X-X-X-X-X-X-X-X-|X-X-X-X-X-X-X-X-|#---X-X-X-X-X-X-|X-X-X-X-X-X-X-X-|
S   |--------o-------|--------o-------|--------o-------|--------o-------|
B   |0-0-0-0---0-0-0-|--0-0-0---0-0---|0-0-0-0---0-0-0-|--0-0-0---0-0---|

Cym |#---X-X-X-X-X-X-|X-X-X-X-X-X-X-X-|#---X-X-X-X-X-X-|----------------|
T   |----------------|----------------|----------------|----oooo--oo----|
S   |--------o-------|--------o-------|--------o-------|--oo----oo------|
FT  |----------------|----------------|----------------|------------oooo|
B   |0-0-0-0---0-0-0-|--0-0-0---0-0---|0-0-0-0---0-0-0-|----------------|


Repeat chorus 1 ad lib. to end

	  

Full key step upFull key step up
Half key step upHalf key step up
Half key step downHalf key step down
Full key step downFull key step down
Search Paypal
auto scroll beats size up size down change color
tab show chords e-chords YouTube Clip e-chords hide all tabs e-chords go to top tab