Bad Religion

home > Bad Religion

Shades Of Truth Drum Tab

Bad Religion

Difficulty: nolevelnolevel

tuner correct add songbook print version text version save to e-mail
chordsukulelecavacokeyboardtabbassdrummharmonicsflute Guitar Pro
chords

Shades Of Truth

Year: 1998 - Album: No Substance

  		

band=Bad Religion
song=Shades of Truth
Album: No Substance
Drummer: Bobby Shayer
Tabbed by: Andy Talbert
([email protected])


Intro
 |-------4x-------|----------------5x---------------|
C |----------------|x---------------|----------------|
S |----------------|----o-----------|----o-----------|
T1|----------------|------------o-o-|--------oooo----|
T2|----------------|----------------|------------oooo|
F |----------------|o-o-o-o-o-o-o-o-|o-o-o-o---------|

C |x---------------|----------------|
S |----o-----------|o-o-o-o-o-o-o-o-|
T1|------------o-o-|----------------|
F |o-o-o-o-o-o-o-o-|o-o-o-o-o-o-o-o-|

Verse 1 (Closed H) |-------2x-------|1---------------|2---------------|
C |x---x-----------|----------------|----------------|----------------|
H |--------x-x-x-x-|x-x-x-x-x-x-x-x-|x-x-x-x-x-x-x---|----------------|
S |----o-------o---|----o-------o---|----o-------o-oo|oooooooooooooooo|
B |o---o---o-o-----|o-o-----o-o-----|o-o-----o-o-----|o---o---o---o---|


PreChorus1(Loose H)|-------2x-------|
C |x---------------|----------------|----------------|
H |----x---x---x---|x---x---x---x---|----------------|
S |----o-------o---|----o-o-----o---|oooo------------|
T1|----------------|----------------|----o-oo--------|
T2|----------------|----------------|--------o-o-----|
F |----------------|----------------|------------oooo|
B |o-o-----o-o-----|o-o-----o-o-----|o---o---o---o---|


Chorus 1  
C |x-------x-x-----|
R |----------------|
S |----o-------o---|
B |o-o-----o-o-----|
  
 |1-2-------------|3---------------|
C |----------------|----------------|
R |x---x---x---x---|x---x-----------|
S |----o-------o---|----o---oooooooo|
B |o-o-----o-o-----|o-o-----o---o---|

C |x-------x-------|x---------------|x-------x-------|x---------------|
R |--x-x-x---x-x-x-|--x-x-x-x-x-x-x-|--x-x-x---x-x-x-|--x-x-----------|
S |----o-------o---|----o-------o---|----o-------o---|----o---oooooooo|
B |o-o-----o-o-----|o-o-----o-o-----|o-o-----o-o-----|o-o-----o---o---|

C |x---x-----------|----------------|----------------|----------------|
R |--x---x-x-x-x-x-|x-x-x-x-x-x-x-x-|x-x-x-x-x-x-x-x-|----------------|
S |----o-------o---|----o-------o---|----o-------o---|oooooooooooooooo|
B |o-o-----o-o-----|o-o-----o-o-----|o-o-----o-o-----|o---o---o---o---|


Repeat Verse 1

Repeat Prechorus 1

Chorus 2
C |x-------x-x-----|
R |----------------|
S |----o-------o---|
B |o-o-----o-o-----|
                    
 |1-2-------------|3---------------|      
C |----------------|----------------|
R |x---x---x---x---|x---x-----------|
S |----o-------o---|----o---oooooooo|
B |o-o-----o-o-----|o-o-----o---o---|
                                                                                                                                             
 |----------------2x---------------|                           
C |x-------x-------|x---------------|----------------|
R |--x-x-x---x-x-x-|--x-x-x-x-x-x-x-|x-x-x-----------|
S |----o-------o---|----o-------o---|----o---oooooooo|
B |o-o-----o-o-----|o-o-----o-o-----|o-o-----o---o---|
                                                                                    
C |x---x-----------|----------------|----------------|
R |------x-x-x-x-x-|x-x-x-x-x-x-x-x-|x-x-x-x-x-x-x-x-|
S |----o-------o---|----o-------o---|----o-------o---|
B |o-o-----o-o-----|o-o-----o-o-----|o-o-----o-o-----|

 |1-3-------------|2---------------|4---------------|
R |x-x-x-x-x-x-x-x-|----------------|----------------|
S |----o-------o---|ooooo-ooo-oooooo|--ooo-ooo-oooooo|
B |o-o-----o-o-----|----------------|o---------------|

Interlude
 |----------------3x---------------|
C |x---------------|----------------|x---------------|----------------|
S |----o-----------|----o-----------|----o-----------|o-o-o-o-o-o-o-o-|
T1|------------o-o-|--------oooo----|------------o-o-|----------------|
T2|----------------|------------oooo|----------------|----------------|
F |o-o-o-o-o-o-o-o-|o-o-o-o---------|o-o-o-o-o-o-o-o-|o-o-o-o-o-o-o-o-|

Chorus 3
C |x-------x-x-----|
R |----------------|
S |----o-------o---|
B |o-o-----o-o-----|
                    
 |1-2-------------|3---------------|      
C |----------------|----------------|
R |x---x---x---x---|x---x-----------|
S |----o-------o---|----o---oooooooo|
B |o-o-----o-o-----|o-o-----o---o---|
                                                    
C |x-------x-------|x---------------|x-------x-------|x---------------|
R |--x-x-x---x-x-x-|--x-x-x---x-x-x-|--x-x-x---x-x-x-|--x-x-x-x-x-x-x-|
S |----o-------o---|----o-------o---|----o-------o---|----o-------o---|
B |o-o-----o-o-----|o-o-----o-o-----|o-o-----o-o-----|o-o-----o-o-----|


C |x-------x-x-----|
R |----------------|
S |----o-------o---|
B |o-o-----o-o-----|
                    
 |1-2-------------|3---------------|      
C |----------------|----------------|
R |x---x---x---x---|x---x-----------|
S |----o-------o---|----o---oooooooo|
B |o-o-----o-o-----|o-o-----o---o---|

C |x-------x-------|x---------------|x-------x-------|x---------------|
R |--x-x-x---x-x-x-|--x-x-x-x-x-x-x-|--x-x-x---x-x-x-|--x-x-----------|
S |----o-------o---|----o-------o---|----o-------o---|----o---oooooooo|
B |o-o-----o-o-----|o-o-----o-o-----|o-o-----o-o-----|o-o-----o---o---|

Outro     
C |x-------x-x-----|
S |----o-------o---|
B |o-o-----o-o-----|
                   
 |1-3-5-6-7-8-----|2---------------|4---------------|
R |x---x---x---x---|----------------|----------------|
S |----o-------o---|--ooo-ooo-oooooo|--ooo-oo--------|
T1|----------------|----------------|--------o-oo----|
T2|----------------|----------------|------------oooo|
B |o-o-----o-o-----|o---------------|----------------|

C |x-----x-x-------|xrrrrrrrrrrrrrrr|
R |----------------|rrrrrrrrrrrrrrrr|
S |--rrr-----------|----------------|
T1|----------f-f---|----------------|
T2|--------------f-|----------------|
B |o---o-o-o-------|----------------|

	  

Full key step upFull key step up
Half key step upHalf key step up
Half key step downHalf key step down
Full key step downFull key step down
Search Paypal
auto scroll beats size up size down change color
tab show chords e-chords YouTube Clip e-chords hide all tabs e-chords go to top tab