Aerosmith

home > Aerosmith

Falling In Love Drum Tab

Aerosmith

Difficulty: nolevelnolevel

tuner correct add songbook print version text version save to e-mail
chordsukulelecavacokeyboardtabbassdrummharmonicsflute Guitar Pro
chords

Falling In Love

Year: 1997 - Album: O, Yeah! Ultimate Aerosmith Hits

  		
   C =CYMBAL
   H =HI-HAT
   RD=RIDE-CYMBAL
   RD-X-=STRIKE BELL OF THE RIDE
   S =SNARE-DRUM
   F =FLOOR-TOM
   B =BASS-DRUM
  
       you're so bad...                    you think you're in love..
   C --------------------------------X---------------------------X---
   H ----------------------------------------------------------------
  RD ----------------------------------x-x-x-x-x-x-x-x-x-x-x-x-x-x-x-
   S 0-----0-----0---0-----0-00000000----0-------0-------0-------0---
   F O-O-O-O-O-O-O-O-O-O-O-O-----------------------------------------
   B --0-0---0-0---0---0-0-----------0-----0-0-------0-----0-0-------
      1 + 2 + 3 + 4 + 1 + 2 + 3 + 4 + 1 + 2 + 3 + 4 + 1 + 2 + 3 + 4 + 
  
   C ----------------------------X-------------------------------X---
   H ----------------------------------------------------------------
  RD x-x-x-x-x-x-x-x-x-x-x-x-x-x---x-x-x-x-x-x-x-x-x-x-x-x-x-x-x---x-
   S ----0-------0-------0-------0-------0-------0-------0-------0---
   F ----------------------------------------------------------------
   B 0-----0-0-------0-----0-0-------0-----0-0-------0-----0-0-------
      1 + 2 + 3 + 4 + 1 + 2 + 3 + 4 + 1 + 2 + 3 + 4 + 1 + 2 + 3 + 4 +  
 
   C ----------------------------------------------------------------
   H -------------------------------------------------------------/x\
  RD x-x-x-x-x-x-x-x-x-x-x-x-x-x-x-x---------------------------------
   S ----0-------0-------0-------0---0-----0-----0---0-----0---0-0---
   F --------------------------------O-O-O-O-O-O-O-O-O-O-O-O-O-O-O---
   B 0-----0-0-------0-----0-0---------0-0---0-0---0---0-0---0-------
      1 + 2 + 3 + 4 + 1 + 2 + 3 + 4 + 1 + 2 + 3 + 4 + 1 + 2 + 3 + 4 + 

        {{REPEAT 8X }}
       we was making..                      there ain't gonna be..
   C ---------------- ----------------X---------------------------X---
   H x-x-x-x-x-x-x-x- ------------------------------------------------
  RD ---------------- ------------------x-x-x-x-x-x-x-x-x-x-x-x-x---x-
   S ----0-------0--- 0-----0-----0-00----0-------0-------0-------0---
   F ---------------- O-O-O-O-O-O-O-----------------------------------
   B 0-----0--------- --0-0---0-0-----0-----0-0-------0-----0-0-------
      1 + 2 + 3 + 4 +  1 + 2 + 3 + 4 + 1 + 2 + 3 + 4 + 1 + 2 + 3 + 4 + 

   C ----------------------------X-------------------------------X---
   H ----------------------------------------------------------------
  RD x-x-x-x-x-x-x-x-x-x-x-x-x-x---x-x-x-x-x-x-x-x-x-x-x-x-x-x-x---x-
   S ----0-------0-------0-------0-------0-------0-------0-------0---
   F  ---------------------------------------------------------------
   B 0-----0-0-------0-----0-0-------0-----0-0-------0-----0-0-------
      1 + 2 + 3 + 4 + 1 + 2 + 3 + 4 + 1 + 2 + 3 + 4 + 1 + 2 + 3 + 4 + 

   C ----------------------------X-----------------------------------
   H -------------------------------------------------------------/x\
  RD x-x-x-x-x-x-x-x-x-x-x-x-x-x---x---------------------------------
   S ----0-------0-------0-------0---0-----0-----0---0-----0---0-0---
   F --------------------------------O-O-O-O-O-O-O-O-O-O-O-O-O-O-O---
   B 0-----0-0-------0-----0-0---------0-0---0-0---0---0-0---0-------
      1 + 2 + 3 + 4 + 1 + 2 + 3 + 4 + 1 + 2 + 3 + 4 + 1 + 2 + 3 + 4 + 

        {{REPEAT 7X }}
      chip off the old..                   i'm jones' in' on love..
   C ---------------- ----------------X-x-x-x-x-x-x-x-x-x-x-x-x-x-x-x-
   H x-x-x-x-x-x-x-x- ------------------------------------------------ 
  RD ---------------- ------------------------------------------------
   S ----0-------0--- 0-----0-----0-00----0-------0-------0-------0---
   F ---------------- O-O-O-O-O-O-O-----------------------------------
   B 0-----0--------- --0-0---0-0-----0-----0-0-------0-----0-0-------
      1 + 2 + 3 + 4 +  1 + 2 + 3 + 4 + 1 + 2 + 3 + 4 + 1 + 2 + 3 + 4 + 

   C x-x-x-x-x-x-x-x-x-x-x-x-x-x-X-x-x-x-x-x-x-x-x-x-x-x-x-x-x-x-X-x-
   H ----------------------------------------------------------------
  RD ----------------------------------------------------------------
   S ----0-------0-------0-------0-------0-------0-------0-------0---
   F ----------------------------------------------------------------
   B 0-----0-0-------0-----0-0-------0-----0-0-------0-----0-0-------
      1 + 2 + 3 + 4 + 1 + 2 + 3 + 4 + 1 + 2 + 3 + 4 + 1 + 2 + 3 + 4 + 

   C x-x-x-x-x-x-x-x-x-x-x-x-x-x-x-x---------------------------------
   H ----------------------------------------------------------------
  RD ----------------------------------------------------------------
   S ----0-------0-------0-------0---0-----0-----0---0-----0---0-0-00
   F --------------------------------O-O-O-O-O-O-O-O-O-O-O-O-O-O-O---
   B 0-----0-0-------0-----0-0---------0-0---0-0---0---0-0---0-------
      1 + 2 + 3 + 4 + 1 + 2 + 3 + 4 + 1 + 2 + 3 + 4 + 1 + 2 + 3 + 4 + 
   
       what are you looking for..
   C X---------------------------------------------------------------
   H ----------------------------------------------------------------
  RD --x-X-x-X-x-X-x-X-x-X-x-X-x-X-x-X-x-X-x-X-x-X-x-X-x-X-x-X-x-X---
   S ----0-------0-------0-------0-------0-------0-------0-------0-00
   F ----------------------------------------------------------------
   B 0-----0-0-------0-----0-0-------0-----0-0-------0-----0-0-------
      1 + 2 + 3 + 4 + 1 + 2 + 3 + 4 + 1 + 2 + 3 + 4 + 1 + 2 + 3 + 4 + 

   C X---------------------------------------------------------------
   H ----------------------------------------------------------------
  RD --x-X-x-X-x-X-x-X-x-X-x-X-x-X-x-X-x-X-x-X-x-X-x-X-x-X-x-X-x-X-x-
   S ----0-------0-------0-------0-------0-------0-------0-------0---
   F ----------------------------------------------------------------
   B 0-----0-0-------0-----0-0-------0-----0-0-------0-----0-0-------
      1 + 2 + 3 + 4 + 1 + 2 + 3 + 4 + 1 + 2 + 3 + 4 + 1 + 2 + 3 + 4 + 

                          {{REPEAT 8X }}
   C --X-X---X-X----XX-----------X--- --------------------------------
   H -------------------------------- --------------------------------
  RD x-----x-----x-----x-x-x-x-x---x- --------------------------------
   S --0-0---0-0----0----0-------0--- 0-----0-----0---0-----0---0-00--
   F -------------------------------- O-O-O-O-O-O-O-O-O-O-O-O-O-O-O-O-
   B 0-----0-----0---0-----0-0------- --0-0---0-0---0---0-0---0------- 
      1 + 2 + 3 + 4 + 1 + 2 + 3 + 4 +  1 + 2 + 3 + 4 + 1 + 2 + 3 + 4 + 
       
       {{REPEAT 7X }}                                        {{REPEAT 7X }}
       you ain't that..                     there ain't gonna be..
   C ---------------- ----------------X---------------------------X---
   H x-x-x-x-x-x-x-x- ------------------------------------------------
  RD ---------------- ----------------x-x-x-x-x-x-x-x-x-x-x-x-x-x-x-x-
   S ----0-------0--- 0-----0-----0-00----0-------0-------0-------0---
   F ---------------- O-O-O-O-O-O-O-O---------------------------------
   B 0-----0--------- --0-0---0-0-----0-----0-0-------0-----0-0-------
      1 + 2 + 3 + 4 +  1 + 2 + 3 + 4 + 1 + 2 + 3 + 4 + 1 + 2 + 3 + 4 + 

                                           {{REPEAT 7X }}
   C ----X-----------X---X-------X-------X-------X-------------------
   H ----------------------------------------------------------------
  RD x-x---x-----------x---x-x-x---x-x-x---x-x-x---x-----------------
   S ----0---00000000----0-------0-------0-------0---0-----0-----0---
   F ------------------------------------------------O-O-O-O-O-O-O-O-
   B 0---------------0-----0-0-------0-----0-0---------0-0---0-0---0-
      1 + 2 + 3 + 4 + 1 + 2 + 3 + 4 + 1 + 2 + 3 + 4 + 1 + 2 + 3 + 4 + 

   C ----------------
   H ----------------
  RD ----------------
   S --0-----0-----0-    END
   F O-O-O-O-O-O-O-O-
   B 0---0-0---0-0---





Contribuição: Cristina ([email protected])
	  

Search Paypal
auto scroll beats size up size down change color
tab show chords e-chords YouTube Clip e-chords hide all tabs e-chords go to top tab