William Ackerman

The Velvet Gentleman

William Ackerman

chords

by  VICTBORGES

save to print version add songbook text version e-mail correct tuner
chordsukulelecavacokeyboardtabbassdrumsharmonicaflute Guitar Pro
close

there isn't a video lesson for this song

chords

The Velvet Gentleman

	  		
Tempo = 85 


  e|--2-----0-------------------| 
  B|--0-----0-----0-------------| 
 F#|-----0-----0-----0--3-------| 
  D|-----------------------0----| 
  A|----------------------------| 
  e|--3-----3-----3-----2-------| 


 e|--------------------------------------------------------------------------------| 
 B|--3-----------------------------------------------------------------------------| 
F#|--------------------------------------------------------0-----------------------| 
 D|-----------------------------0--------------------------------------------------| 
 A|--2-----------------------------------------------------------------------------| 
 e|--------------------------------------------------------------------------------| 

                                                       V 
 e|--------------------------------------------------|--------------5-------| 
 B|---3h----------5h----------3----------------------|--2--------2-----2----| 
F#|--------------------------------------------------|--------0-------------| 
 D|--------------------------------------------------|-----0----------------| 
 A|--------------------------------------------------|--0-------------------| 
 e|--------------------------------------------------|----------------------| 


 e|--2-----------2-------|--2-----------0-------|--2-----0-------------------| 
 B|--0--------0--0-------|--0--------0--0-------|--0-----0-----0-------------| 
F#|--------0-------------|--------0--------0----|-----0-----0-----0--3-------| 
 D|-----0-----------0----|-----0----------------|-----------------------0----| 
 A|----------------------|----------------------|----------------------------| 
 e|--3-----------3-------|--3-----------3-------|--3-----3-----3-----2-------| 


 e|--------------------------------------------------------------------------------| 
 B|--3-----------------------------------------------------------------------------| 
F#|--------------------------------------------------------0-----------------------| 
 D|-----------------------------0--------------------------------------------------| 
 A|--2-----------------------------------------------------------------------------| 
 e|--------------------------------------------------------------------------------| 

                                                       V 
 e|--------------------------------------------------|--------------5-------| 
 B|---3h----------5h----------3----------------------|--2--------2-----2----| 
F#|--------------------------------------------------|--------0-------------| 
 D|--------------------------------------------------|-----0----------------| 
 A|--------------------------------------------------|--0-------------------| 
 e|--------------------------------------------------|----------------------| 


 e|--2-----------2-------|--2--------0--2-------|--9-----------9-------| 
 B|--0--------0--0-------|--0--------0----------|--0--------0--0-------| 
F#|--------0-------------|--------0--------0----|--------0-----0-------| 
 D|-----0-----------0----|-----0----------------|-----0-----------0----| 
 A|----------------------|----------------------|----------------------| 
 e|--3-----------3-------|--3--------3--3-------|--7-----------7-------| 


 e|--2-----------0-------|--5-----------5-------|--0--2--------2-------| 
 B|--0--------0--0-------|--2--------2--2-------|--0-----------0-------| 
F#|--------0--------0----|--------0--------0----|-----------0-----0----| 
 D|-----0----------------|-----0----------------|--------0-------------| 
 A|----------------------|--0-----------0-------|----------------------| 
 e|--3-----------3-------|----------------------|--3-----------3-------| 


 e|--2--------0--2-------|--9-----------9-------|--2-----------0-------| 
 B|--0--------0--0-------|--0--------0--0-------|--0--------0--0-------| 
F#|--------0--------0----|--------0-----0-------|--------0--------0----| 
 D|-----0----------------|-----0-----------0----|-----0----------------| 
 A|----------------------|----------------------|----------------------| 
 e|--3--------3--3-------|--7-----------7-------|--3-----------3-------| 


 e|--5-----------5-------|--0--2--------2-------|--2--------0--2-------| 
 B|--2--------2--2-------|--0-----------0-------|--0--------0--0-------| 
F#|--------0--------0----|-----------0-----0----|--------0--------0----| 
 D|-----0----------------|--------0-------------|-----0----------------| 
 A|--0-----------0-------|----------------------|----------------------| 
 e|----------------------|--3-----------3-------|--3--------3--3-------| 


 e|--2-----0-------------------| 
 B|--0-----0-----0-------------| 
F#|-----0-----0-----0--3-------| 
 D|-----------------------0----| 
 A|----------------------------| 
 e|--3-----3-----3-----2-------| 


 e|--------------------------------------------------------------------------------| 
 B|--3-----------------------------------------------------------------------------| 
F#|--------------------------------------------------------0-----------------------| 
 D|-----------------------------0--------------------------------------------------| 
 A|--2-----------------------------------------------------------------------------| 
 e|--------------------------------------------------------------------------------| 

                                                       V 
 e|--------------------------------------------------|--------------5-------| 
 B|---3h----------5h----------3----------------------|--2--------2-----2----| 
F#|--------------------------------------------------|--------0-------------| 
 D|--------------------------------------------------|-----0----------------| 
 A|--------------------------------------------------|--0-------------------| 
 e|--------------------------------------------------|----------------------| 


 e|--2-----------2-------|--2-----------0-------|--2-----0-------------------| 
 B|--0--------0--0-------|--0--------0--0-------|--0-----0-----0-------------| 
F#|--------0-------------|--------0--------0----|-----0-----0-----0--3-------| 
 D|-----0-----------0----|-----0----------------|-----------------------0----| 
 A|----------------------|----------------------|----------------------------| 
 e|--3-----------3-------|--3-----------3-------|--3-----3-----3-----2-------| 


 e|--------------------------------------------------------------------------------| 
 B|--3-----------------------------------------------------------------------------| 
F#|--------------------------------------------------------0-----------------------| 
 D|-----------------------------0--------------------------------------------------| 
 A|--2-----------------------------------------------------------------------------| 
 e|--------------------------------------------------------------------------------| 

                                                       V 
 e|--------------------------------------------------|--------------5-------| 
 B|---3h----------5h----------3----------------------|--2--------2-----2----| 
F#|--------------------------------------------------|--------0-------------| 
 D|--------------------------------------------------|-----0----------------| 
 A|--------------------------------------------------|--0-------------------| 
 e|--------------------------------------------------|----------------------| 


 e|--2-----------2-------|--2--------0--2-------|--9-----------9-------| 
 B|--0--------0--0-------|--0--------0----------|--0--------0--0-------| 
F#|--------0-------------|--------0--------0----|--------0-----0-------| 
 D|-----0-----------0----|-----0----------------|-----0-----------0----| 
 A|----------------------|----------------------|----------------------| 
 e|--3-----------3-------|--3--------3--3-------|--7-----------7-------| 


 e|--2-----------0-------|--5-----------5-------|--0--2--------2-------| 
 B|--0--------0--0-------|--2--------2--2-------|--0-----------0-------| 
F#|--------0--------0----|--------0--------0----|-----------0-----0----| 
 D|-----0----------------|-----0----------------|--------0-------------| 
 A|----------------------|--0-----------0-------|----------------------| 
 e|--3-----------3-------|----------------------|--3-----------3-------| 


 e|--2--------0--2-------|--9-----------9-------|--2-----------0-------| 
 B|--0--------0--0-------|--0--------0--0-------|--0--------0--0-------| 
F#|--------0--------0----|--------0-----0-------|--------0--------0----| 
 D|-----0----------------|-----0-----------0----|-----0----------------| 
 A|----------------------|----------------------|----------------------| 
 e|--3--------3--3-------|--7-----------7-------|--3-----------3-------| 


 e|--5-----------5-------|--0--2--------2-------|--2----------|| 
 B|--2--------2--2-------|--0-----------0-------|--0----------|| 
F#|--------0--------0----|-----------0-----0----|-------------|| 
 D|-----0----------------|--------0L-0L-0L-0L---|--0L----0----|| 
 A|--0-----------0-------|----------------------|-------------|| 
 e|----------------------|--3-----------3-------|--3----------|| 


 e|-2-----------0-----5-----------2--0---|| 
 B|--------------------------------------|| 
F#|o------3-----------------3-----------o|| 
 D|o5-----------------4-----------------o|| 
 A|--------------------------------------|| 
 e|--------------------------------------|| 


 e|--2-----------0-----0h-2--------0-------|--2-------------------| 
 B|----------------------------------------|-----------3----------| 
F#|--------3-----------------3-------------|--------3--------3----| 
 D|--5-----------------5-------------------|-----4--------4--4----| 
 A|----------------------------------------|--5--------5-----5----| 
 e|----------------------------------------|----------------------| 


 e|--5-----------5--------5--5--------5----|--5h-0----------------| 
 B|--3-----------3--------3--3--------3----|--3-----3-------------| 
F#|--0-----------0--------0--0--------0----|--0-----0-----3L-3----| 
 D|--0-----------0--------0--0--------0----|--0-----0-----0L-0----| 
 A|--2-----------2--------2--2--------2----|--0-----4-----4L-4----| 
 e|----------------------------------------|----------------------| 


 e|--------------------------0h-------2----|--0----------| 
 B|--------------------------0-------------|--0--0-------| 
F#|--3h-------5--5--------3--3-------------|--3-----3----| 
 D|--0-----------0-----------0-------------|--0--0--0----| 
 A|--0-----------0-------------------------|--0--0--0----| 
 e|--3-----------3-----------3-------------|--3--3--2----| 


 e|--5-----------5--------5--5--------5----|--5h-0----------------| 
 B|--3-----------3--------3--3--------3----|--3-----3-------------| 
F#|--0-----------0--------0--0--------0----|--0-----0-----3L-3----| 
 D|--0-----------0--------0--0--------0----|--0-----0-----0L-0----| 
 A|--2-----------2--------2--2--------2----|--0-----4-----4L-4----| 
 e|----------------------------------------|----------------------| 


 e|--------------------------0h-------2----|--0----------| 
 B|--------------------------0-------------|--0--0-------| 
F#|--3h-------5--5--------3--3-------------|--3-----3----| 
 D|--0-----------0-----------0-------------|--0--0--0----| 
 A|--0-----------0-------------------------|--0--0--0----| 
 e|--3-----------3-----------3-------------|--3--3--2----| 


 e|--5-----------5--------5--5--------5----|--5h-0----------------| 
 B|--3-----------3--------3--3--------3----|--3-----3-------------| 
F#|--0-----------0--------0--0--------0----|--0-----0-----3L-3----| 
 D|--0-----------0--------0--0--------0----|--0-----0-----0L-0----| 
 A|--2-----------2--------2--2--------2----|--0-----4-----4L-4----| 
 e|----------------------------------------|----------------------| 


 e|--------------------------0h-------2----|--0----------| 
 B|--------------------------0-------------|--0--0-------| 
F#|--3h-------5--5--------3--3-------------|--3-----3----| 
 D|--0-----------0-----------0-------------|--0--0--0----| 
 A|--0-----------0-------------------------|--0--0--0----| 
 e|--3-----------3-----------3-------------|--3--3--2----| 


 e|--5-----------5--------5--5--------5----|--5h-0----------------| 
 B|--3-----------3--------3--3--------3----|--3-----3-------------| 
F#|--0-----------0--------0--0--------0----|--0-----0-----3L-3----| 
 D|--0-----------0--------0--0--------0----|--0-----0-----0L-0----| 
 A|--2-----------2--------2--2--------2----|--0-----4-----4L-4----| 
 e|----------------------------------------|----------------------| 


 e|--------------------------0h-------2----|--0L----0----|| 
 B|--------------------------0-------------|--0L----0----|| 
F#|--3h-------5--5--------3--3-------------|--3L----3----|| 
 D|--0-----------0-----------0-------------|--0L----0----|| 
 A|--0-----------0-------------------------|--0L----0----|| 
 e|--3-----------3-----------3-------------|--3L----3----|| 



********************************** 
| h  Hammer-on 
********************************** 
		  

See also:

chords Ira! - Receita Para Se Fazer Um Herói chords Ira! - Eu Quero Sempre Mais chords Ira! - Mariana Foi Pro Mar chords Ira! - Imagens de Vocę chords Ira! - Nasci em 62 chords Ira! - House of The Rising Sun
e-chords

Other versions:

chords William Ackerman - The Velvet Gentleman
auto scroll beats size up size down change color hide chords simplify chords drawings columns
tab show chords e-chords YouTube Clip e-chords hide all tabs e-chords go to top tab

share