Três Caras

Ode Ao Gaúcho

Três Caras

chords

by  3CARAS

save to print version add songbook text version e-mail correct tuner
chordsukulelecavacokeyboardtabbassdrumsharmonicaflute Guitar Pro
close

there isn't a video lesson for this song

chords

Ode Ao Gaúcho

	  		|	     D		        G 
| Eu sou gaúcho mas não sou viado 
|		        A 
| Não que tenha algo errado, 
|		        D 
| Cada um dá o que é seu 
	| 
	|		G		      D 
| Mas por que todos do Rio Grande do Sul 
|			A 
| Tem que saber fazer churrasco, 
|			D 
| Agüentar frio, e dar o... 


	G		      D 
O começo da minha vida foi difícil 
		A 
Lá nos pampas Gaúchos, 
		D 
Serra fria e chimarão. 
	     G 
Mas com apenas três anos 
	D			A 
Minha família resolveu vir pra São Paulo 
		   D 
E concluir a migração 

    Bm		Em	   A	     D	 
E ouço desde então piadas de todo calão 
	Bm		Em 
Eu não desisto sou brasileiro, 
		    A		   D 
Eu não nasci em Pelotas, eu nasci inteiro! 

	     D		        G 
| Eu sou gaúcho mas não sou viado 
|		        A 
| Não que tenha algo errado, 
|		        D 
| Cada um dá o que é seu 
	| 
	|		G		      D 
| Mas por que todos do Rio Grande do Sul 
|			A 
| Tem que saber fazer churrasco, 
|			D 
| Agüentar frio, e dar o... 

	G		        D 
O curioso da historia da minha vida 
		     A 
É minha família nascida em Porto Alegre 
	D 
Mas eu não 
	G		     D 
Eu não sabia como isso alteraria 
		A		D 
O percurso que viria alterar a condição 

    Bm		Em	   A	     D	 
E ouço desde então piadas de todo calão 
	Bm		Em 
Eu não desisto sou brasileiro, 
		    A		   D 
Eu não nasci em Pelotas, eu nasci inteiro! 

	     D		        G 
| Eu sou gaúcho mas não sou viado 
|		        A 
| Não que tenha algo errado, 
|		        D 
| Cada um dá o que é seu 
	| 
	|		G		      D 
| Mas por que todos do Rio Grande do Sul 
|			A 
| Tem que saber fazer churrasco, 
|			D 
| Agüentar frio, e dar o... 



Solo: 

|------------------|---------------------|--------------------------------------------------------------------------------------| 
|------------------|---------------------|---------------------------------------------------------10---------10--------------| 
|--9-7------7----|----------------------|------------------7-9^10^9p7-9-7---7-   7-9-9^11----7-9^11---11^9-7-----| 
|-------9-7---9--|--9-7----------7----|--------------7-9---------------------9---9-----------------------------------------| 
|------------------|------9-8-7-9---5--|------5-7/9-------------------------------------------------------------------------| 
|------------------|---------------------|--5-7--------------------------------------------------------------------------------| 

|-------------------------------------------------------|----------------------------------------------------------------------| 
|-------------------------------------------------------|------------------15-17-15-17^19^17-15----17p15-----15-----| 
|------------7-----------------------------------------|-----------14-16-----------------------------17---------17---------| 
|--9-7-9-7---9-9-7-9--9^10^9p7?9p7----9p9--|--14-16--------------------------------------------------------------| 
|----------------------------------------------9-------|-----------------------------------------------------------------------| 
|-------------------------------------------------------|----------------------------------------------------------------------| 

|----------17---------17-----------------------------------------------------------------------------------------------------| 
|-17^19-----17^19----17^19^17-15-------------------------------------------------------------------------------------| 
|------------------------------------------------------------------------------------------------------------------------------| 
|------------------------------------------------------------------------------------------------------------------------------| 
|------------------------------------------------------------------------------------------------------------------------------| 
|------------------------------------------------------------------------------------------------------------------------------| 
		  

Full key step upFull key step up
Half key step upHalf key step up
Half key step downHalf key step down
Full key step downFull key step down
hide glossary

See also:

chords Ana Carolina - Nua chords Ana Carolina - É Isso Aí chords Sandy & Júnior - Quando você passa chords Roupa Nova - Linda demais chords Ana Carolina - Encostar Na Tua chords LS Jack - Sem Radar
e-chords

Other versions:

chords Três Caras - Ode Ao Gaúcho
auto scroll beats size up size down change color hide chords simplify chords drawings columns
tab show chords e-chords YouTube Clip e-chords hide all tabs e-chords go to top tab

share with facebook