Titãs

É Preciso Saber Viver

Titãs

chords Beginner beginner

save to print version add songbook text version e-mail correct tuner
chordsukulelecavacokeyboardtabbassdrumsharmonicaflute Guitar Pro
close

there isn't a video lesson for this song

chords

É Preciso Saber Viver

	  		(intro) D D7+ D7 G Gm6 D Bm E G A 

        D 
Quem espera que a vida 
      D7+ 
Seja feita de ilusão 
       D7 
Pode até ficar maluco 
       G 
Ou morrer na solidão 
      Gm6 
É preciso ter cuidado 
          D            Bm7 
Pra mais tarde não sofrer 
E          G       A 
É preciso saber viver 
      D 
Toda pedra no caminho 
      D7+ 
Você pode retirar 
       D7 
Numa flor que tem espinhos 
      G 
Você pode se arranhar 
      Gm6 
Se o bem e o mal existem 
      D         Bm7 
Você pode escolher 
E          G        A 
É preciso saber viver 

(refrão) 
      G          D       Bm 
      É preciso saber viver 
      G          D       Bm 
      É preciso saber viver 
     G          D       Bm 
      É preciso saber viver 
      G          D       Bm 
      É preciso saber viver 
      E           G  A 
      Saber viver 

Solo da Viola de aço (em 1:29): D D7+ D7 G Gm6 D Bm E G A 


     D                               D7M 
E |----------7--5—-7------------------------------------------- 
B |----5/7-------------5/7------------------------------------- 
G |------------------------------------4/6--------------------- 
D |------------------------------------------------------------ 
A |------------------------------------------------------------ 
E |------------------------------------------------------------ 


     D7                          G 
E |----------7----5----7---9/10---12\10/14--------12---10/12--- 
B |----5/7---------------------------------------------------12 
G |------------------------------------------------------------ 
D |------------------------------------------------------------ 
A |------------------------------------------------------------ 
E |------------------------------------------------------------ 



     Gm6          D                E 
E |------------------------------------------------------------ 
B |----8/11---11/13\11----10\2------------------9/12----------- 
G |-----------------------9\1---------5\7/9-7/9-9/12----------- 
D |------------------------------------------------------------ 
A |------------------------------------------------------------ 
E |------------------------------------------------------------ 


        G           A 
E |------------------------------------------------------------ 
B |----12-12-12---14------------------------------------------- 
G |----12-12-12---14------------------------------------------- 
D |------------------------------------------------------------ 
A |------------------------------------------------------------ 
E |------------------------------------------------------------ 


Solo do Sax (em 1:50): D D7+ D7 G Gm6 D E G A 


E |------------------------------------------------------------ 
B |----------15------15----17--15--17---15---14-14--15--17----- 
G |--14--16------16-------------------------------------------- 
D |------------------------------------------------------------ 
A |------------------------------------------------------------ 
E |------------------------------------------------------------ 



E |------------------------------------------------------------ 
B |----------------------------15--17--15--17/19--17--15--17--- 
G |--16--14-14----------14--16-------------------------------16 
D |-------------14--16----------------------------------------- 
A |------------------------------------------------------------ 
E |------------------------------------------------------------ 



E |------------------------------------------------------------ 
B |----------17/21--17--15--17/21--21--17--15------------------ 
G |--16--14---------------------------------------------------- 
D |------------------------------------------------------------ 
A |------------------------------------------------------------ 
E |------------------------------------------------------------ 



E |------------------------------------------------------------ 
B |------15—17/21--17--15-15--17------------------------------- 
G |--16-------------------------------------------------------- 
D |------------------------------------------------------------ 
A |------------------------------------------------------------ 
E |------------------------------------------------------------ 


        D 
Quem espera que a vida 
      D7+ 
Seja feita de ilusão 
       D7 
Pode até ficar maluco 
       G 
Ou morrer na solidão 
      Gm6 
É preciso ter cuidado 
          D            Bm 
Pra mais tarde não sofrer 
E          G       A7 
É preciso saber viver 
      D 
Toda pedra no caminho 
      D7+ 
Você pode retirar 
       D7 
Numa flor que tem espinhos 
      G 
Você pode se arranhar 
      Gm6 
Se o bem e o mal existem 
      D         Bm7 
Você pode escolher 
E          G        A7 
É preciso saber viver 

(refrão) 
      G          D 
      É preciso saber viver 
      G          D 
      É preciso saber viver 
  3   G          D       Bm7 
  x   É preciso saber viver 
      G          D       Bm 
      É preciso saber viver 
      E           G  A 
      Saber viver 

		  

Full key step upFull key step up
Half key step upHalf key step up
Half key step downHalf key step down
Full key step downFull key step down
auto scroll beats size up size down change color hide chords simplify chords drawings columns
tab show chords e-chords YouTube Clip e-chords hide all tabs e-chords go to top tab

share