Tim Christensen

Caught In The Arms Of

Tim Christensen

chords Intermediate intermediate

by  EDUCASTILHO

save to print version add songbook text version e-mail correct tuner
chordsukulelecavacokeyboardtabbassdrumsharmonicaflute Guitar Pro
close

there isn't a video lesson for this song

chords

Caught In The Arms Of

Capo on 6th fret
	  		
Tuning: D A D G B e 


 

 Ab(add9)                         Bbm9 
|----------0---------------0-----|----------0---------------0-----| 
|3---------3---3-----------3---3-|----------3---3-----------3-----| 
|2-----2---------------2---------|------0---------------0---------| 
|4-------------------4-----------|----4---------------4-----------| 
|0---0---0---0---0---0---0---0---|2---2---2---2---2---2---2---2---| 
|0---0---0---0---0---0---0---0---|2---2---2---2---2---2---2---2---| 


 Bbm9            Edim7           Abmaj7          Ab6 
|2-----0---------------0---------|--------------------------------| 
|3-----3---3---2-------2---2-----|----2-----2---0-----------------| 
|0---------0---0---------------0-|----2-----2---2-----2-----------| 
|2---------------2---2---2---2---|----4-----4---4-----4---4-------| 
|2---2---2---2---1---1---1---1---|0---0---0---0---0---0---0---0---| 
|2---2---2---2-------------------|0---0---0---0---0---0---0---0---| 


 Ab(add9)                         Bbm9 
|----------0---------------0-----|----------0---------------0-----| 
|3---------3---3-----------3---3-|----------3---3-----------3-----| 
|2-----2---------------2---------|------0---------------0---------| 
|4-------------------4-----------|----4---------------4-----------| 
|0---0---0---0---0---0---0---0---|2---2---2---2---2---2---2---2---| 
|0---0---0---0---0---0---0---0---|2---2---2---2---2---2---2---2---| 


 Bbm9            Edim7           Edim7  Eb7     Ab 
|2-----0---------------0---------|------------------------0-------| 
|3-----3---3---2-------2---2-----|----2-----2---3---3-----3-------| 
|0---------0---0---------------0-|----0-----0---2---2-----2-------| 
|2---------------2---2---2---2---|2---2---2---------4-4---4-------| 
|2---2---2---2---1---1---1---1---|1---1---0---0---0---0---0---0---| 
|2---2---2---2-------------------|------------0---0---0---0---0---| 
 
		  

Full key step upFull key step up
Half key step upHalf key step up
Half key step downHalf key step down
Full key step downFull key step down
hide glossary

See also:

chords D.A.D. - Grow Or Pay chords Tim Christensen - Right Next To The Right One (Acoustic) chords Carpark North - Human chords Tim Christensen - Stranger chords Tim Christensen - Caught In The Arms Of chords Dizzy Mizz Lizzy - Glory
e-chords

Other versions:

chords Tim Christensen - Caught In The Arms Of
auto scroll beats size up size down change color hide chords simplify chords drawings columns
tab show chords e-chords YouTube Clip e-chords hide all tabs e-chords go to top tab

share