Thousand Foot Krutch

Lifeline

Thousand Foot Krutch

chords

by  ALEFFEDERICO

save to print version add songbook text version e-mail correct tuner
chordsukulelecavacokeyboardtabbassdrumsharmonicaflute Guitar Pro
close

there isn't a video lesson for this song

chords

Lifeline

	  		
Intro  

e|---------------------------------------------------------------------------| 
B|---------------------------------------------------------------------------| 
G|---------------------------------------------------------------------------| 
D|---------------------------------------------------------------------------| 
A|---------------------------------------------------------------------------|  
D|-0-0-0-3p0-5p0-8-8-8-8-8-7p0-5-5-5-5-3p0-2p0-2p0-3p0-----------------------| 
    
e|---------------------------------------------------------------------------| 
B|---------------------------------------------------------------------------| 
G|---------------------------------------------------------------------------| 
D|---------------------------------------------------------------------------| 
A|---------------------------------------------------------------------------| 
D|-0-0-3p0-5p0-8-8-8-8-8-7p0-5-5-5-5-3p0-2p0-2hb-----------------------------| 
    

Verse  

e|----------------------------|-----------------------------| 
B|----------------------------|-----------------------------| 
G|----------------------------|-----------------------------| 
D|----------------------------|------------5--5----5-5---3--| x 2 
A|--0--0----0-0--0---0-0---8--|--0--0----0-3--3----3-3---1--| 
D|--0--0----0-0--0---0-0---8--|--0--0----0------------------| 



Pre-Chorus  
PM - - -      - - -       - - -     - - - 
e|---------------------|------------------------------| 
B|---------------------|------------------------------| 
G|---------------------|------------------------------| 
D|---------------------|------------------------------| 
A|--0-0-0-5---0-0-0-8--|--0-0-0-8---0-0-0-10--8-5-----| 
D|--0-0-0-5---0-0-0-8--|--0-0-0-8---0-0-0-10--8-5-----| 
PM - - -      - - -      
e|---------------------|------------------------------| 
B|---------------------|------------------------------| 
G|---------------------|--3--3--3--3--5---------------| 
D|---------------------|--3--3--3--3--5---------------| 
A|--0-0-0-5---0-0-0-8--|--1--1--1--1--3---------------| 
D|--0-0-0-5---0-0-0-8--|--1--1--1--1--3---------------| 
  


Chorus  

e|--------------------------------------------| 
B|--------------------------------------------| 
G|--------------------------------------------| 
D|-0-0-0-0---8-8-8-8---3-3-3-3---10-10-10-10--| x 3 
A|-0-0-0-0---8-8-8-8---3-3-3-3---10-10-10-10--| 
D|-0-0-0-0---8-8-8-8---3-3-3-3---10-10-10-10--| 

e|-------------------------------------------------| 
B|-------------------------------------------------| 
G|-------------------------------------------------| 
D|-0-0-0-0---8-8-8-8---8--8--8--8--10\-------------|  
A|-0-0-0-0---8-8-8-8---8--8--8--8--10\-------------| 
D|-0-0-0-0---8-8-8-8---8--8--8--8--10\----0h2p0-3hb| 


Intro 

e|------------------------------------------------------| 
B|------------------------------------------------------| 
G|------------------------------------------------------| 
D|------------------------------------------------------|  
A|------------------------------------------------------|  
D|-0-0-0-3p0-5p0-8-8-8-8-8-7p0-5-5-5-5-3p0-2p0-2p0-3p0--| 
   
e|----------------------------------------------------| 
B|----------------------------------------------------| 
G|----------------------------------------------------| 
D|----------------------------------------------------|  
A|----------------------------------------------------|  
D|--0-0-3p0-5p0-8-8-8-8-8-7p0-5-5-5-5-3p0-2p0-2hb-----| 
    

Pre-Chorus 
PM - - -      - - -       - - -     - - - 
e|---------------------|------------------------------| 
B|---------------------|------------------------------| 
G|---------------------|------------------------------| 
D|---------------------|------------------------------| 
A|--0-0-0-5---0-0-0-8--|--0-0-0-8---0-0-0-10--8-5-----| 
D|--0-0-0-5---0-0-0-8--|--0-0-0-8---0-0-0-10--8-5-----| 
PM - - -      - - -     
e|---------------------|------------------------------| 
B|---------------------|------------------------------| 
G|---------------------|--3--3--3--3--5---------------| 
D|---------------------|--3--3--3--3--5---------------| 
A|--0-0-0-5---0-0-0-8--|--1--1--1--1--3---------------| 
D|--0-0-0-5---0-0-0-8--|--1--1--1--1--3---------------| 
     
   
Chorus 

e|--------------------------------------------| 
B|--------------------------------------------| 
G|--------------------------------------------| 
D|-0-0-0-0---8-8-8-8---3-3-3-3---10-10-10-10--| x 3 
A|-0-0-0-0---8-8-8-8---3-3-3-3---10-10-10-10--| 
D|-0-0-0-0---8-8-8-8---3-3-3-3---10-10-10-10--| 

e|---------------------------------------| 
B|---------------------------------------| 
G|---------------------------------------| 
D|-0-0-0-0---8-8-8-8---8--8--8--8--10\---|  
A|-0-0-0-0---8-8-8-8---8--8--8--8--10\---| 
D|-0-0-0-0---8-8-8-8---8--8--8--8--10\---| 



 Bridge 


e|------------------------------| 
B|------------------------------| 
G|------------------------------| 
D|--0--7--0--3------0h3-5p0--1--| 
A|--0--7--0--3------0h3-5p0--1--| 
D|--0--7--0--3------0h3-5p0--1--| 

e|---------------------------------| 
B|---------------------------------| 
G|---------------------------------| 
D|--0--7--0--3------0------3p0--6--| 
A|--0--7--0--3------0------3p0--6--| 
D|--0--7--0--3------0-3hbr-3p0--6--| 

e|------------------------------| 
B|------------------------------| 
G|------------------------------| 
D|--0--7--0--3------0h3-5p0--1--| 
A|--0--7--0--3------0h3-5p0--1--| 
D|--0--7--0--3------0h3-5p0--1--| 

e|----------------------------| 
B|----------------------------| 
G|----------------------------| 
D|--0--7--0--3------0---------| 
A|--0--7--0--3------0---------| 
D|--0--7--0--3------0-3hbr-3--| 

e|---------------------------------------------| 
B|---------------------------------------------| 
G|------------------------------------3--------| 
D|------------------------------------3--3--5--| 
A|--1--1-1-1---1--1-1-1---1--1-1-1----1--3--5--| 
D|--1--1-1-1---1--1-1-1---1--1-1-1-------3--5--| 
                                 b 


Interlude 

e|---------------------------------------------------------------------| 
B|---------------------------------------------------------------------| 
G|--------5------------------------------------------------------------| 
D|-----3-----3------------10---------------10------------------10------| 
A|--5------------------8------8------8--8----------8/10-10--8------8---| 
D|------------------8--------------------------------------------------| 

e|------------------------------------------| 
B|------------------------------------------| 
G|--------5---------------------------------| 
D|-----3-----3------------10----------------| 
A|--5------------------8------8-------------| 
D|------------------8----------------10-----| 


  Chorus 

e|--------------------------------------------| 
B|--------------------------------------------| 
G|--------------------------------------------| 
D|-0-0-0-0---8-8-8-8---3-3-3-3---10-10-10-10--| x 5 
A|-0-0-0-0---8-8-8-8---3-3-3-3---10-10-10-10--| 
D|-0-0-0-0---8-8-8-8---3-3-3-3---10-10-10-10--| 

e|-------------------------------------------------| 
B|-------------------------------------------------| 
G|-------------------------------------------------| 
D|-0-0-0-0---8-8-8-8---8--8--8--8--10\-------------|  
A|-0-0-0-0---8-8-8-8---8--8--8--8--10\-------------| 
D|-0-0-0-0---8-8-8-8---8--8--8--8--10\----0h2p0-3hb| 

e|------------------------------------------------------| 
B|------------------------------------------------------| 
G|------------------------------------------------------| 
D|------------------------------------------------------|  
A|------------------------------------------------------|  
D|-0-0-0-3p0-5p0-8-8-8-8-8-7p0-5-5-5-5-3p0-2p0-2p0-3p0--| 

e|----------------------------------------------------| 
B|----------------------------------------------------| 
G|----------------------------------------------------| 
D|----------------------------------------------------|  
A|----------------------------------------------------|  
D|--0-0-3p0-5p0-8-8-8-8-8-7p0-5-5-5-5-3p0-2p0-2hb-----| 


Intro 

e|------------------------------------------------------| 
B|------------------------------------------------------| 
G|------------------------------------------------------| 
D|------------------------------------------------------|  
A|------------------------------------------------------|  
D|-0-0-0-3p0-5p0-8-8-8-8-8-7p0-5-5-5-5-3p0-2p0-2p0-3p0--| 

e|----------------------------------------------------| 
B|----------------------------------------------------| 
G|----------------------------------------------------| 
D|----------------------------------------------------|  
A|----------------------------------------------------|  
D|--0-0-3p0-5p0-8-8-8-8-8-7p0-5-5-5-5-3p0-2p0-2hb-----|  
		  

See also:

chords A Great Big World - Say Something chords Jason Mraz - I Won't Give Up chords Mariah Carey - When you Believe chords John Legend - All Of Me chords Stevie Wonder - Isn't She Lovely chords Christina Perri - A Thousand Years
e-chords

Other versions:

chords Colin Hay - Lifeline chords Will And The People - Lifeline chords Papa Roach - Lifeline chords Ben Harper - Lifeline chords Jamiroquai - Lifeline chords Anthem Lights - Lifeline
auto scroll beats size up size down change color hide chords simplify chords drawings columns
tab show chords e-chords YouTube Clip e-chords hide all tabs e-chords go to top tab

share