The Lone Bellow

You Can Be All Kinds Of Emotional

The Lone Bellow

chords

by  BRUNBLAZKOWSKI

save to print version add songbook text version e-mail correct tuner
chordsukulelecavacokeyboardtabbassdrumsharmonicaflute Guitar Pro
close

there isn't a video lesson for this song

chords

You Can Be All Kinds Of Emotional

	  		

Tuning: Standard 

e|---------------------3-------------------------3-----------------------------| 
B|---------------------3-------------------------3-----------------------------| 
G|---------------------0-------------------------0-----------------------------|  x2 
D|---------------------0-------------------------0-----------------------------| 
A|---------------------2-------------------------0-----------------------------| 
E|---------------------3-------------------------3-----------------------------| 
    Letters written in vain, I don't care if you know 
    Pour my tear...    drain, Let  'em  seep  in slow 

e|----------3-----------------------------------------------------------------| 
B|----------3-----------------------------------------------------------------| 
G|----------0-----------------------------------------------------------------| 
D|----------0-----------------------------------------------------------------| 
A|----------2-----------------------------------------------------------------| 
E|----------3-----------------------------------------------------------------| 
    Oh, and we can dance around what happened 

e|--0-------------------------------------------------------------------------| 
B|--1-------------------------------------------------------------------------| 
G|--2-------------------------------------------------------------------------| 
D|--2-------------------------------------------------------------------------| 
A|--0-------------------------------------------------------------------------| 
E|--0-------------------------------------------------------------------------| 
    Play the music soft and low 

e|--0--0---------------------------0----------3-------------------------------| 
B|--1--1---------------------------1----------3-------------------------------| 
G|--0--0---------------------------0----------0-------------------------------| 
D|--0--0h2-------------------------0h2--------0-------------------------------| 
A|--2--3---------------------------3----------2-------------------------------| 
E|--0--0---------------------------0----------3-------------------------------| 
       And you can be all kinds of emotional 


   Solo 
e|--3------3------3------3------0--0--0------3--------------------------------| 
B|--3------3------3------3------1--1--1------3--------------------------------| 
G|--0------0------0------0------2--0--0------0--------------------------------| 
D|--0------0------0------0------2--0--0h2----0--------------------------------| 
A|--2------0------2------0------0--2--3------2--------------------------------| 
E|--3------3------3------3------0--0--0------3--------------------------------| 


e|--0---------------------------0--0------------------------------------------| 
B|--1---------------------------1--1------------------------------------------| 
G|--2---------------------------0--0------------------------------------------|  x2 
D|--2---------------------------0--2------------------------------------------| 
A|--0---------------------------2--3------------------------------------------| 
E|--0---------------------------0--0------------------------------------------| 
    Take my ache, take my blood       Take the time to wish me luck 
    Take my ache, take my blood       Take the time to wish me luck 

e|-------------3--------------------------------------------------------------| 
B|-------------3--------------------------------------------------------------| 
G|-------------0--------------------------------------------------------------|  x2 (2nd time- last 
D|-------------0--------------------------------------------------------------|       strum at "gone") 
A|-------------2--------------------------------------------------------------|        
E|-------------3--------------------------------------------------------------| 
    Wish I was gone, wish I was dust 
    Wish I was gone, wish I was dust 

e|-----------------------3--------------------------3-------------------------| 
B|-----------------------3--------------------------3-------------------------| 
G|-----------------------0--------------------------0-------------------------|  x2 
D|-----------------------0--------------------------0-------------------------| 
A|-----------------------2--------------------------0-------------------------| 
E|-----------------------3--------------------------3-------------------------| 
    On the porch to your house, with this letter in hand 
    All the candles...   out,   oh    my    good    man  

e|--3-------------------------------------------------------------------------| 
B|--3-------------------------------------------------------------------------| 
G|--0-------------------------------------------------------------------------| 
D|--0-------------------------------------------------------------------------| 
A|--2-------------------------------------------------------------------------| 
E|--3-------------------------------------------------------------------------| 
    I watch you dance around in circles 

e|--0-------------------------------------------------------------------------| 
B|--1-------------------------------------------------------------------------| 
G|--2-------------------------------------------------------------------------| 
D|--2-------------------------------------------------------------------------| 
A|--0-------------------------------------------------------------------------| 
E|--0-------------------------------------------------------------------------| 
    With your new man in the glow 

e|--0--0----------------------------------3-----------------------------------| 
B|--1--1----------------------------------3-----------------------------------| 
G|--0--0----------------------------------0-----------------------------------| 
D|--0--0h2--------------------------------0-----------------------------------| 
A|--2--3----------------------------------2-----------------------------------| 
E|--0--0----------------------------------3-----------------------------------| 
       You can be all kinds of emotional 

e|----------0----------0---0-------------------3------------------------------| 
B|----------1----------1---1-------------------3------------------------------| 
G|----------2----------0---0-------------------0------------------------------| 
D|----------2----------0---0h2-----------------0------------------------------| 
A|----------0----------2---3-------------------2------------------------------| 
E|----------0----------0---0-------------------3------------------------------| 
    Oh, and you can be all kinds of emotional 



************************************ 

| /   slide up 
| \   slide down 
| h   hammer-on 
| p   pull-off 
| ~   vibrato 
| +   harmonic 
| x   Mute note 
| b   Bend 
| pb  Pre-bend 
| br  Bend release 
| pbr Pre-bend release 
| brb Bend release bend 

************************************ 
		  

See also:

chords Bruno Mars - Treasure chords Bruno Mars - 24k Magic chords Bruno Mars - Uptown Funk chords Bruno Mars - Grenade chords Bruno Mars - Locked Out Of Heaven chords Bruno Mars - Just The Way You Are
e-chords

Other versions:

chords The Lone Bellow - You Can Be All Kinds Of Emotional
auto scroll beats size up size down change color hide chords simplify chords drawings columns
tab show chords e-chords YouTube Clip e-chords hide all tabs e-chords go to top tab

share