Stress

Coração De Metal

Stress

chords Intermediate intermediate

by  JOV-CORREA

save to print version add songbook text version e-mail correct tuner
chordsukulelecavacokeyboardtabbassdrumsharmonicaflute Guitar Pro
close

there isn't a video lesson for this song

chords

Coração De Metal

	  		
Intro: Dm7  Bb9(11+) 


     Dm7                  Bb9(11+) 
E|----------------------------------------- 
B|------------5---6-----6----X------------- 
G|-------5----5---5-----5----X------------- 
D|-----7----7---7-----0-0----X------------- 
A|-3/5-----------------------X------------- 
E|----------------------6----X------------- 


(Primeira Parte) 
 Dm7     Bb9(11+)  Dm7    Bb9(11+) 
Deus meu          Pai meu 
  Dm7    Bb9(11+)  Dm7     Bb9(11+) 
Amor meu          Tudo, razão de tudo 

 Dm7     Bb9(11+)  Dm7    Bb9(11+) 
Deus meu           Ar    Meu 

   Dm7     Bb9(11+)    Dm7 
Farol O farol que eu preciso 

        Bb9(11+) 
Como eu          preciso... 

Primeira Parte: 


     C/D    Dm7            Bb9(11+) 
E|--------------------X-------------------- 
B|-5/6--5/6-X---6--5--X--6----------------- 
G|-5----5---X---5--5--X--5----------------- 
D|-5/7--5/7-X---7--5--X--0----------------- 
A|-5----5---X-0-5-----X-------------------- 
E|-----------------8-----6----------------- 



Segunda Parte: 
       Dm7                 G 
Eu preciso Te sentir todo dia 
     Dm7                     G 
E olhar pra Tua luz pra não me perder 
     Dm7                       G 
Meu Senhor, Tu és a minha alegria 
       Bb9(11+) 
Eu preciso... 

Parte 1 de 3 


     C/D Dm7  C/D    Dm7 C/D 
E|--------5--------5---------------------- 
B|-5/--6--6-5--X-X-6---5--X-X------------- 
G|-5------5-5--X-X-5---5--X-X------------- 
D|-5/--7--7-5--X-X-7---5--X-X------------- 
A|-5------5-5--X-X-5---5--X-X------------- 
E|---------------------------------------- 


 â??      â?? â??  â?? â?? â??   â??  â?? â?? 

Parte 2 de 3 


     G 
E|---------------------------------------- 
B|-0--0---0--0-0----0-0-0-0--------------- 
G|-0--0---0--0-0----0-0-0-0--------------- 
D|-0--0---0--0-0----0-0-0-0--------------- 
A|---------------------------------------- 
E|-3----3-3------3--3-3-3-3--------------- 


 â??  â?? â?? â??  â?? â?? â??  â?? â?? â?? â?? 

Parte 2 de 3 (Variação) 


     G 
E|---------------------------------------- 
B|-0--0---0--0-0-1p0---------------------- 
G|-0--0---0--0-0-----2p0-----0------------ 
D|-0--0---0--0-0---------0h2---2---------- 
A|---------------------------------------- 
E|-3----3-3------------------------------- 


 â??  â?? â?? â??  â?? â?? 

Parte 3 de 3 


     Bb9(11+) 
E|-0-0-0-0-0-0-0-0-0-0-0-0---------------- 
B|-6-6-6-6-6-6-6-6-6-6-6-6---------------- 
G|-5-5-5-5-5-5-5-5-5-5-5-5---------------- 
D|-0-0-0-0-0-0-0-0-0-0-0-0---------------- 
A|---------------------------------------- 
E|-6-6-6-6-6-6-6-6-6-6-6-6---------------- 


 â?? â?? â?? â?? â?? â?? â?? â?? â?? â?? â?? â?? 

Refrão: 
               Bb9(11+) 
Deus da minha vida 
 C9     Dm7 
Fica comigo 
           Bb9(11+) 
Sou a sua casa 
 C9      Dm7 
Mora em mim 
               Bb9(11+) 
Deixa eu Te dizer 
    C9       Dm7 
O que eu preciso, Pai 
       Bb9(11+) 
Eu preciso do Senhor... 

( Bb5(9)  C5(9)  Dm7 ) (4x) 

Passagem: Pós Refrão 


     Bb5(9)  C5(9)  Dm7 
E|---1------------------------------------ 
B|-----1---------6----6-5------6-5-------- 
G|-------3-3---3-5----5-5------5-5-------- 
D|---------3-3---7----7-5----7-7-5-------- 
A|-1-------1-----5--5------5-------------- 
E|---------------------------------------- 


     Bb5(9)  C5(9) Dm7 
E|---1------------------------------------ 
B|-----1---------6------------------------ 
G|-------3-3---3-5------------------------ 
D|---------3-3---7------------------------ 
A|-1-------1-----5------------------------ 
E|---------------------------------------- 


(Repete Primeira Parte) 

(Repete Segunda Parte) 

(Repete Refrão) 
    C9       Dm7 
O que eu preciso, Pai 
       Bb9(11+)        C9 
Eu preciso do Senho____Or 

Base Solo: 
( Bb9(11+) C9  Dm7 ) (8x) Bb9(11+) 

(Repete Refrão) 
		  

Full key step upFull key step up
Half key step upHalf key step up
Half key step downHalf key step down
Full key step downFull key step down
hide glossary

See also:

chords Ira! - Tanto Quanto Eu chords Ira! - Vida Passageira chords Ira! - Eu Quero Sempre Mais chords Ike & Tina Turner - Proud Mary chords Ira! - Dias de Luta chords Deep Purple - Lazy/new chords
e-chords

Other versions:

chords Stress - Coração De Metal
auto scroll beats size up size down change color hide chords simplify chords drawings columns
tab show chords e-chords YouTube Clip e-chords hide all tabs e-chords go to top tab

share