Street Dogs

Punk Rock And Roll

Street Dogs

chords

by  TAMAMOREIRA

save to print version add songbook text version e-mail correct tuner
chordsukulelecavacokeyboardtabbassdrumsharmonicaflute Guitar Pro
close

there isn't a video lesson for this song

chords

Punk Rock And Roll

	  		
INTRO                   

                        7X | Many times 
E|-------------------------|--------------------------------------| 
B|-------------------------|--------------------------------------| 
G|-------9--xxx-11-x-------|--------------------------------------| 
D|-9--xx-9--xxx-11-x-9--xx-|--9-----------------------------------| 
A|-9--xx-7--xxx--9-x-9--xx-|--9-----------------------------------| 
E|-7--xx-------------7--xx-|--7-----------------------------------| 


VERSE PART 1 

E|----------------------------------------------------------------| 
B|----------------------------------------------------------------| 
G|---------------9-9------------------------9-9-------------------|x2 
D|-9--9-9-9-9-9-9---9-9--9--7/9--9-9-9-9-9-9---9-9-9--------------| 
A|-9--9-9-9-9-9-9---7-7--9--7/9--9-9-9-9-9-9---7-7-9--------------| 
E|-7--7-7-7-7-7-7-----7-----5/7--7-7-7-7-7-7-------7--------------| 


VERSE PART 2 

E|----------------------------------------------------------------| 
B|----------------------------------------------------------------| 
G|------------9p7-------------------------------------------------| 
D|-9--9(22x)------7h9--9-9(22x)-9-9-9-9-9-9-----------------------| 
A|-9--9----------------9-9------9-9-9-9-9-9-----------------------| 
E|-7--7----------------7-7------7-7-7-7-7-7-----------------------| 


Chorus 

E|----------------------------------------------------------------| 
B|----------------------------------------------------------------| 
G|-9-9--11-11-11--------------------------------------------------|x4 
D|-9-9--11-11-11--9-9-9-9-9-9-9-9---------------------------------| 
A|-7-7---9--9--9--9-9-9-9-9-9-9-9---------------------------------| 
E|----------------7-7-7-7-7-7-7-7---------------------------------| 
  Stay up all night... 


VERSE PART 1 

E|----------------------------------------------------------------| 
B|----------------------------------------------------------------| 
G|---------------9-9------------------------9-9-------------------|x2 
D|-9--9-9-9-9-9-9---9-9--9--7/9--9-9-9-9-9-9---9-9-9--------------| 
A|-9--9-9-9-9-9-9---7-7--9--7/9--9-9-9-9-9-9---7-7-9--------------| 
E|-7--7-7-7-7-7-7-----7-----5/7--7-7-7-7-7-7-------7--------------| 


VERSE PART 2 

E|----------------------------------------------------------------| 
B|----------------------------------------------------------------| 
G|------------9p7-------------------------------------------------| 
D|-9--9(22x)------7h9--9-9(22x)-9-9-9-9-9-9-----------------------| 
A|-9--9----------------9-9------9-9-9-9-9-9-----------------------| 
E|-7--7----------------7-7------7-7-7-7-7-7-----------------------| 


Chorus 

E|----------------------------------------------------------------| 
B|----------------------------------------------------------------| 
G|-9-9--11-11-11--------------------------------------------------|x4 
D|-9-9--11-11-11--9-9-9-9-9-9-9-9---------------------------------| 
A|-7-7---9--9--9--9-9-9-9-9-9-9-9---------------------------------| 
E|----------------7-7-7-7-7-7-7-7---------------------------------| 
  Stay up all night... 


BRIDGE 

E|----------------------------------------------------------------| 
B|----------------------------------------------------------------| 
G|-11-(repeat till solo)------------------------------------------| 
D|-11-------------------------------------------------------------| 
A|--9-------------------------------------------------------------| 
E|----------------------------------------------------------------| 
   Feel it... 


GUITAR SOLO                          

                                  FIRST TIME  SECOND TIME 
E|--------------------------7-7-7-7-7-7-7-7-|-1212-10-7-|----------------| 
B|-10b--10b--10b--10-7-10b--7-7-7-7-7-7-7-7-|-1212-10-7-|----------------| 
G|------------------------------------------|-----------|--9-7-----------| 
D|------------------------------------------|-----------|------9---------| 
A|------------------------------------------|-----------|----------------| 
E|------------------------------------------|-----------|----------------| 


BASS SOLO 

(strum some times this chor at beginning, middle and end) 
E|----------------------------------------------------------------| 
B|----------------------------------------------------------------| 
G|----------------------------------------------------------------| 
D|--9-------------------------------------------------------------| 
A|--9-------------------------------------------------------------| 
E|--7-------------------------------------------------------------| 


Chorus x2 

E|----------------------------------------------------------------| 
B|----------------------------------------------------------------| 
G|-9-9--11-11-11--------------------------------------------------|x4 
D|-9-9--11-11-11--9-9-9-9-9-9-9-9---------------------------------| 
A|-7-7---9--9--9--9-9-9-9-9-9-9-9---------------------------------| 
E|----------------7-7-7-7-7-7-7-7---------------------------------| 
  Stay up all night... 


OUTRO 

E|----------------------------------------------------------------| 
B|----------------------------------------------------------------| 
G|--9----11-------------------------------------------------------| 
D|--9----11----9--------------------------------------------------| 
A|--7-----9----9--------------------------------------------------| 
E|-------------7--------------------------------------------------| 


*********************************** 
| /   Slide up 
| p   Pull-off 
| x   Dead note 
| b   Bend 
*********************************** 
		  

auto scroll beats size up size down change color hide chords simplify chords drawings columns
tab show chords e-chords YouTube Clip e-chords hide all tabs e-chords go to top tab

share