State Champs

Mine Is Gold

State Champs

chords

by  ROBEPOIEL

save to print version add songbook text version e-mail correct tuner
chordsukulelecavacokeyboardtabbassdrumsharmonicaflute Guitar Pro
close

there isn't a video lesson for this song

chords

Mine Is Gold

	  		
Verse Guitar 2: (x2) 
"Wait, Just A Little Bit Longer..." 
D#|--------------------------------------|---------------------------------------| 
A#|--------------------------------------|---------------------------------------| 
F#|--9---------9-----9-------9--------9--|---------------------------------------| 
C#|--9---------9-----9-------9--------9--|--9---------9-----9-------9---------9--| 
G#|--7--7-7-7--7--7--7--7-7--7--7-7-7-7--|--9---------9-----9-------9---------9--| 
D#|--------------------------------------|--7--7-7-7--7--7--7--7-7--7--7-7-7--7--| 

D#|---------------------------------------|--------------------------------------------------| 
A#|---------------------------------------|--------------------------------------------------| 
F#|---------------------------------------|--------------------------------------------------| 
C#|--7---------7-----7-------7---------7--|--11-11-11-11-11-11-11-11-9--9--9--9--9--9--9--9--| 
G#|--7---------7-----7-------7---------7--|--11-11-11-11-11-11-11-11-9--9--9--9--9--9--9--9--| 
D#|--5--5-5-5--5--5--5--5-5--5--5-5-5--5--|--9--9--9--9--9--9--9--9--7--7--7--7--7--7--7--7--| 


Verse Guitar 1: 
"Cause I've Grown A Little Bit..." 
D#|--------0-----4p0-----0--------0-----0----------|--------0-----7p0-----0-------0------------------| 
A#|--0--0-----0-------0-----0--0-----0--4/5--5--5--|--0--0-----0-------0-------0-----0--4/5--5--5p0--| 
F#|------------------------------------------------|-------------------------------------------------| 
C#|------------------------------------------------|-------------------------------------------------| 
G#|------------------------------------------------|-------------------------------------------------| 
D#|------------------------------------------------|-------------------------------------------------| 

D#|--------0-----4p0-----0--------0-----0----------|--0--0--0--0--0--0--0--0--0--0--0--0--0--0--0--0--| 
A#|--0--0-----0-------0-----0--0-----0--4/5--5--5--|--9--9--9--9--9--9--9--9--7--7--7--7--7--7--7--7--| 
F#|------------------------------------------------|--------------------------------------------------| 
C#|------------------------------------------------|--------------------------------------------------| 
G#|------------------------------------------------|--------------------------------------------------| 
D#|------------------------------------------------|--------------------------------------------------| 

PreChorus Both Guitars: 
"And I Can't Wait To Watch..." 
D#|--------------------------|--------------------------|----------------0--|-----| 
A#|--------------------------|--------------------------|----------------x--|--1--| 
F#|--2--2--2--2--2--2--2--2--|--4--4--4--4--4--4--4--4--|--6--6----4--4--2--|--2--| 
C#|--2--2--2--2--2--2--2--2--|--4--4--4--4--4--4--4--4--|--6--6----4--4--2--|-----| 
G#|--0--0--0--0--0--0--0--0--|--2--2--2--2--2--2--2--2--|--4--4----2--2--0--|-----| 
D#|--------------------------|--------------------------|-------------------|-----| 

Chorus Guitar 1: (x2) 
"Live My Life From Inside My Head..." 
D#|-------------------------------------|--------------------------------| 
A#|-------------------------------------|--------------------------------| 
F#|--13---13--13---13--13---13--13--13--|--11--11-11--11-11-11-11-11--11-| 
C#|---x----x---x----x---x----x---x---x--|--x---x--x---x--x--x--x--x---x--| 
G#|--11---11--11---11--11---11--11--11--|--9---9--9---9--9--9--9--9---9--| 
D#|-------------------------------------|--------------------------------| 

D#|-----------------------------|--------------------------------| 
A#|-----------------------------|--------------------------------| 
F#|--9---9--9---9--9---9--9--9--|--6---6--6---6--6--6--6--6---6--| 
C#|--x---x--x---x--x---x--x--x--|--x---x--x---x--x--x--x--x---x--| 
G#|--7---7--7---7--7---7--7--7--|--4---4--4---4--4--4--4--4---4--| 
D#|-----------------------------|--------------------------------| 

Chorus Guitar 2: (x2) 
"Live My Life From Inside My Head..." 
D#|-----------------------------|--------------------------------| 
A#|-----------------------------|--------------------------------| 
F#|--9---9--9---9--9---9--9--9--|--------------------------------| 
C#|--9---9--9---9--9---9--9--9--|--9---9--9---9--9--9--9--9---9--| 
G#|--7---7--7---7--7---7--7--7--|--9---9--9---9--9--9--9--9---9--| 
D#|-----------------------------|--7---7--7---7--7--7--7--7---7--| 

D#|-----------------------------|--------------------------------| 
A#|-----------------------------|--------------------------------| 
F#|-----------------------------|--------------------------------| 
C#|--11--11-11--11-11--11-11-11-|--7---7--7---7--7--7--7--7---7--| 
G#|--11--11-11--11-11--11-11-11-|--7---7--7---7--7--7--7--7---7--| 
D#|--9---9--9---9--9---9--9--9--|--5---5--5---5--5--5--5--5---5--| 

Chorus Guitar 3: 
"Make My Way To Places..." 
D#|---------0-----------------------|----------0-------------------------| 
A#|------------4--------------------|-------------4----------------------| 
F#|--1/2/4----------4---------------|-------4----------4--6--6-----4-----| 
C#|--------------------6---6--6--6--|--4/6----------------------4-----4--| 
G#|---------------------------------|------------------------------------| 
D#|---------------------------------|------------------------------------| 

D#|---------0----------------------|-----------------------| 
A#|------------4-------------------|-----------------5--5--| 
F#|--1/2/4---------4---------------|------------1/4--4--4--| 
C#|-------------------6---6--6--6--|--4\2------------------| 
G#|--------------------------------|---------4-------------| 
D#|--------------------------------|-----------------------| 

Verse Guitar 2: 
"In Your Eyes..." 
D#|--------------------------------------------------| 
A#|--------------------------------------------------| 
F#|--------------------------------------------------| 
C#|--11-11-11-11-11-11-11-11-9--9--9--9--9--9--9--9--| 
G#|--11-11-11-11-11-11-11-11-9--9--9--9--9--9--9--9--| 
D#|--9--9--9--9--9--9--9--9--7--7--7--7--7--7--7--7--| 

D#|--------------------------------------|---------------------------------------| 
A#|--------------------------------------|---------------------------------------| 
F#|--9---------9-----9-------9--------9--|---------------------------------------| 
C#|--9---------9-----9-------9--------9--|--9---------9-----9-------9---------9--| 
G#|--7--7-7-7--7--7--7--7-7--7--7-7-7-7--|--9---------9-----9-------9---------9--| 
D#|--------------------------------------|--7--7-7-7--7--7--7--7-7--7--7-7-7--7--| 

D#|---------------------------------------|--------------------------------------------------| 
A#|---------------------------------------|--------------------------------------------------| 
F#|---------------------------------------|--------------------------------------------------| 
C#|--7---------7-----7-------7---------7--|--11-11-11-11-11-11-11-11-9--9--9--9--9--9--9--9--| 
G#|--7---------7-----7-------7---------7--|--11-11-11-11-11-11-11-11-9--9--9--9--9--9--9--9--| 
D#|--5--5-5-5--5--5--5--5-5--5--5-5-5--5--|--9--9--9--9--9--9--9--9--7--7--7--7--7--7--7--7--| 


Verse Guitar 1: 
"I'm Walking Out Through The Backdoor..." 
D#|--------0-----4p0-----0--------0-----0----------|--------0-----7p0-----0-------0------------------| 
A#|--0--0-----0-------0-----0--0-----0--4/5--5--5--|--0--0-----0-------0-------0-----0--4/5--5--5p0--| 
F#|------------------------------------------------|-------------------------------------------------| 
C#|------------------------------------------------|-------------------------------------------------| 
G#|------------------------------------------------|-------------------------------------------------| 
D#|------------------------------------------------|-------------------------------------------------| 

D#|--------0-----4p0-----0--------0-----0----------|--0--0--0--0--0--0--0--0--0--0--0--0--0--0--0--0--| 
A#|--0--0-----0-------0-----0--0-----0--4/5--5--5--|--9--9--9--9--9--9--9--9--7--7--7--7--7--7--7--7--| 
F#|------------------------------------------------|--------------------------------------------------| 
C#|------------------------------------------------|--------------------------------------------------| 
G#|------------------------------------------------|--------------------------------------------------| 
D#|------------------------------------------------|--------------------------------------------------| 

PreChorus Both Guitars: 
"I'm Learning How You're Burning Dowm..." 
D#|--------------------------|--------------------------|----------------0--|-----| 
A#|--------------------------|--------------------------|----------------x--|--1--| 
F#|--2--2--2--2--2--2--2--2--|--4--4--4--4--4--4--4--4--|--6--6----4--4--2--|--2--| 
C#|--2--2--2--2--2--2--2--2--|--4--4--4--4--4--4--4--4--|--6--6----4--4--2--|-----| 
G#|--0--0--0--0--0--0--0--0--|--2--2--2--2--2--2--2--2--|--4--4----2--2--0--|-----| 
D#|--------------------------|--------------------------|-------------------|-----| 

Chorus Guitar 1: (x2) 
"Live My Life From Inside My Head..." 
D#|-------------------------------------|--------------------------------| 
A#|-------------------------------------|--------------------------------| 
F#|--13---13--13---13--13---13--13--13--|--11--11-11--11-11-11-11-11--11-| 
C#|---x----x---x----x---x----x---x---x--|--x---x--x---x--x--x--x--x---x--| 
G#|--11---11--11---11--11---11--11--11--|--9---9--9---9--9--9--9--9---9--| 
D#|-------------------------------------|--------------------------------| 

D#|-----------------------------|--------------------------------| 
A#|-----------------------------|--------------------------------| 
F#|--9---9--9---9--9---9--9--9--|--6---6--6---6--6--6--6--6---6--| 
C#|--x---x--x---x--x---x--x--x--|--x---x--x---x--x--x--x--x---x--| 
G#|--7---7--7---7--7---7--7--7--|--4---4--4---4--4--4--4--4---4--| 
D#|-----------------------------|--------------------------------| 

Chorus Guitar 2: (x2) 
"Live My Life From Inside My Head..." 
D#|-----------------------------|--------------------------------| 
A#|-----------------------------|--------------------------------| 
F#|--9---9--9---9--9---9--9--9--|--------------------------------| 
C#|--9---9--9---9--9---9--9--9--|--9---9--9---9--9--9--9--9---9--| 
G#|--7---7--7---7--7---7--7--7--|--9---9--9---9--9--9--9--9---9--| 
D#|-----------------------------|--7---7--7---7--7--7--7--7---7--| 

D#|-----------------------------|--------------------------------| 
A#|-----------------------------|--------------------------------| 
F#|-----------------------------|--------------------------------| 
C#|--11--11-11--11-11--11-11-11-|--7---7--7---7--7--7--7--7---7--| 
G#|--11--11-11--11-11--11-11-11-|--7---7--7---7--7--7--7--7---7--| 
D#|--9---9--9---9--9---9--9--9--|--5---5--5---5--5--5--5--5---5--| 

Chorus Guitar 3: 
"Make My Way To Places..." 
D#|---------0-----------------------|----------0-------------------------| 
A#|------------4--------------------|-------------4----------------------| 
F#|--1/2/4----------4---------------|-------4----------4--6--6-----4-----| 
C#|--------------------6---6--6--6--|--4/6----------------------4-----4--| 
G#|---------------------------------|------------------------------------| 
D#|---------------------------------|------------------------------------| 

D#|---------0----------------------|-----------------------| 
A#|------------4-------------------|-----------------5--5--| 
F#|--1/2/4---------4---------------|------------1/4--4--4--| 
C#|-------------------6---6--6--6--|--4\2------------------| 
G#|--------------------------------|---------4-------------| 
D#|--------------------------------|-----------------------| 

Bridge Both Guitars: 
D#|----------------------|----------------------|----------------------|----------------| 
A#|----------------------|----------------------|----------------------|----------------| 
F#|--9--9----------9--9--|----------------------|--9--9----------9--9--|----------------| 
C#|--9--9---6--6---9--9--|--9--9----11-11-11-11-|--9--9---6--6---9--9--|--9--9----------| 
G#|--7--7---6--6---7--7--|--9--9----11-11-11-11-|--7--7---6--6---7--7--|--9--9---6b7r6--| 
D#|---------4--4---------|--7--7----9--9--9--9--|---------4--4---------|--7--7----------| 

D#|----------------------|----------------------|----------------------|----------------------| 
A#|----------------------|----------------------|----------------------|----------------------| 
F#|--9--9----------9--9--|----------------------|--9--9----------9--9--|----------------------| 
C#|--9--9---6--6---9--9--|--9--9----11-11-11-11-|--9--9---6--6---9--9--|--9--9----11-11-11-11-| 
G#|--7--7---6--6---7--7--|--9--9----11-11-11-11-|--7--7---6--6---7--7--|--9--9----11-11-11-11-| 
D#|---------4--4---------|--7--7----9--9--9--9--|---------4--4---------|--7--7----9--9--9--9--| 

Final Chorus Guitar 2: 
"Live My Life From Inside My Head..." 
D#|-----|-----| 
A#|-----|-----| 
F#|--9--|-----| 
C#|--9--|--9--| 
G#|--7--|--9--| 
D#|-----|--7--| 

D#|-----------------------------|--------------------------------| 
A#|-----------------------------|--------------------------------| 
F#|-----------------------------|--------------------------------| 
C#|--11--11-11--11-11--11-11-11-|--7---7--7---7--7--7--7--7---7--| 
G#|--11--11-11--11-11--11-11-11-|--7---7--7---7--7--7--7--7---7--| 
D#|--9---9--9---9--9---9--9--9--|--5---5--5---5--5--5--5--5---5--| 

D#|-----------------------------|--------------------------------| 
A#|-----------------------------|--------------------------------| 
F#|--9---9--9---9--9---9--9--9--|--------------------------------| 
C#|--9---9--9---9--9---9--9--9--|--9---9--9---9--9--9--9--9---9--| 
G#|--7---7--7---7--7---7--7--7--|--9---9--9---9--9--9--9--9---9--| 
D#|-----------------------------|--7---7--7---7--7--7--7--7---7--| 

D#|-----------------------------|--------------------------------| 
A#|-----------------------------|--------------------------------| 
F#|-----------------------------|--------------------------------| 
C#|--11--11-11--11-11--11-11-11-|--7---7--7---7--7--7--7--7---7--| 
G#|--11--11-11--11-11--11-11-11-|--7---7--7---7--7--7--7--7---7--| 
D#|--9---9--9---9--9---9--9--9--|--5---5--5---5--5--5--5--5---5--| 

Final Chorus Guitar 3: 
"Live My Life Inside My Head..." 
D#|-----------2---------------------2------------|-----------7-------------| 
A#|-----5----------5-----5-------5------5-----5--|-----5----------5-----5--| 
F#|--4-----4----------4-------4------------4-----|--6-----6----------6-----| 
C#|----------------------------------------------|-------------------------| 
G#|----------------------------------------------|-------------------------| 
D#|----------------------------------------------|-------------------------| 

D#|-----------7-------------------7--------|--------------12----------| 
A#|-----9--------9----------9--------9-----|------10----------10------| 
F#|--9-----9--------9----9-----9--------9--|--13------13----------13--| 
C#|----------------------------------------|--------------------------| 
G#|----------------------------------------|--------------------------| 
D#|----------------------------------------|--------------------------| 

D#|-----------2---------------------2------------|-----------4---------------------------| 
A#|-----5----------5-----5-------5------5-----5--|-----5----------5----------5-----4--2--| 
F#|--4-----4----------4-------4------------4-----|--6-----6----------6----6-----6--------| 
C#|----------------------------------------------|---------------------------------------| 
G#|----------------------------------------------|---------------------------------------| 
D#|----------------------------------------------|---------------------------------------| 

D#|-----------7-------------------7--------|--12----------12----------12----------12----------12/14--| 
A#|-----9--------9----------9--------9-----|------12----------12----------12----------12-------------| 
F#|----------------------------------------|----------13----------13----------13----------13---------| 
C#|----------------------------------------|---------------------------------------------------------| 
G#|----------------------------------------|---------------------------------------------------------| 
D#|----------------------------------------|---------------------------------------------------------| 

Chorus Guitar 1: (x2) 
"On And On And On..." 
D#|-----------------------------|-----------------------------------------| 
A#|-----------------------------|-----------------------------------------| 
F#|--9---9--9---9--9---9--9--9--|--6---6--6---6--6-6-6-6-6-6-6-6-6-4-4-4--| 
C#|--x---x--x---x--x---x--x--x--|--x---x--x---x--x-x-x-x-x-x-x-x-x-x-x-x--| 
G#|--7---7--7---7--7---7--7--7--|--4---4--4---4--4-4-4-4-4-4-4-4-4-2-2-2--| 
D#|-----------------------------|-----------------------------------------| 

D#|-------------------------------------|--------------------------------| 
A#|-------------------------------------|--------------------------------| 
F#|--13---13--13---13--13---13--13--13--|--11--11-11--11-11-11-11-11--11-| 
C#|---x----x---x----x---x----x---x---x--|--x---x--x---x--x--x--x--x---x--| 
G#|--11---11--11---11--11---11--11--11--|--9---9--9---9--9--9--9--9---9--| 
D#|-------------------------------------|--------------------------------| 

D#|-----------------------------|--------------------------------| 
A#|-----------------------------|--------------------------------| 
F#|--9---9--9---9--9---9--9--9--|--6---6--6---6--6--6--6--6---6--| 
C#|--x---x--x---x--x---x--x--x--|--x---x--x---x--x--x--x--x---x--| 
G#|--7---7--7---7--7---7--7--7--|--4---4--4---4--4--4--4--4---4--| 
D#|-----------------------------|--------------------------------| 

Outro Both Guitars: 
D#|----------------------|----------------------|----------------------| 
A#|----------------------|----------------------|----------------------| 
F#|--9--9----------9--9--|----------------------|--9--9----------9--9--| 
C#|--9--9---6--6---9--9--|--9--9----11-11-11-11-|--9--9---6--6---9--9--| 
G#|--7--7---6--6---7--7--|--9--9----11-11-11-11-|--7--7---6--6---7--7--| 
D#|---------4--4---------|--7--7----9--9--9--9--|---------4--4---------| 

************************************ 

| x   Dead note 
| p   Pull-off 
| /   Slide up 
| \   Slide down 

************************************ 
		  

See also:

chords Ira! - Teorema chords Ira! - VocÍ ainda pode sonhar chords Deep Purple - When a Blind man cries chords Ira! - Boneca de Cera chords Deep Purple - Woman From Tokyo chords Deep Purple - Burn
e-chords

Other versions:

chords State Champs - Mine Is Gold
auto scroll beats size up size down change color hide chords simplify chords drawings columns
tab show chords e-chords YouTube Clip e-chords hide all tabs e-chords go to top tab

share