Salvia Palth

I Dont Want To Ask Your Father Or Anything

Salvia Palth

chords

by  JESSGOMES

save to print version add songbook text version e-mail correct tuner
chordsukulelecavacokeyboardtabbassdrumsharmonicaflute Guitar Pro
close

there isn't a video lesson for this song

chords

I Dont Want To Ask Your Father Or Anything

	  		
Intro 

e|---------------------------------------------------------------------------| 
B|-----------------9---------9-------- -9---------9--------------------------| 
G|-------------10--------10---------10---------10----------------------------| 
D|---------11---------11--------10----------10-------------------------------| 
A|---------------------------------------------------------------------------| 
E|---------------------------------------------------------------------------| 

e|---------------------------------------------------------------------------| 
B|------------6--------6---------4--------4----------------------------------| 
G|----------6-------6---------5-------5--------------------------------------| 
D|-------8-------8---------6-------6-----------------------------------------| 
A|---------------------------------------------------------------------------| 
E|---------------------------------------------------------------------------| 


repeat until the "i don't wanna talk you lost me" 
		  

See also:

chords Ike & Tina Turner - Proud Mary chords Ira! - Prisão das Ruas chords Ira! - Bebendo Vinho chords Ira! - Envelheço na Cidade chords Deep Purple - Lazy/new chords chords Ira! - O Girassol
e-chords

Other versions:

chords Salvia Palth - I Dont Want To Ask Your Father Or Anything
auto scroll beats size up size down change color hide chords simplify chords drawings columns
tab show chords e-chords YouTube Clip e-chords hide all tabs e-chords go to top tab

share