Reveille

Killin Me

Reveille

chords

by  TAMAMOREIRA

save to print version add songbook text version e-mail correct tuner
chordsukulelecavacokeyboardtabbassdrumsharmonicaflute Guitar Pro
close

there isn't a video lesson for this song

chords

Killin Me

	  		
Intro 

(harmonic) 
D#|--0--------| 
A#|--0--------| 
F#|--0--------| 
C#|--0--------| 
G#|--0--------| 
C#|--0--------| 


Chorus 

D#|------------------------------| 
A#|------------------------------| 
F#|------------------------------| 
C#|--1p0-0--0-10h12p10--0-6p5-5--| 
G#|--1p0-0--0-10h12p10--0-6p5-5--| 
C#|--1p0-0--0-10h12p10--0-6p5-5--| 


Verse 

D#|----------------------------------| 
A#|----------------------------------| 
F#|----------------------------------| 
C#|--------------0-0-0-6-6-6-3-3-6-6-| 
G#|----------------------------------| 
C#|--0-0-0-3-3-3---------------------| 

(4th messure in second verse) 
D#|----------------------------------| 
A#|----------------------------------| 
F#|-----------------(5)--------------| 
C#|--0-0-0-3-3-3-0-----(5)-----------| 
G#|--------------0-------------------| 
C#|----------------------------------| 


Bridge 1 

D#|----------------------------------| 
A#|----------------------------------| 
F#|----------------------------------| 
C#|--0-0-0-3-3-3-0-0-0-6-6-6-3-3-6-6-| 
G#|----------------------------------| 
C#|----------------------------------| 


Bridge 2 

D#|-------------------------| 
A#|-------------------------| 
F#|-------------------------| 
C#|--0---0-3-3-0----6-6-3-6-| 
G#|--0---0-3-3-0----6-6-3-6-| 
C#|--0---0-3-3-0----6-6-3-6-| 

D#|-----------| 
A#|-----------| 
F#|-----------| 
C#|--3------1-| 
G#|--3------1-| 
C#|--3------1-| 


Bridge 3 

D#|----------------------------| 
A#|----------------------------| 
F#|----------------------------| 
C#|--0-0-4-x-x-0-0-4-x-x-0-0-4-| 
G#|--0-0-4-x-x-0-0-4-x-x-0-0-4-| 
C#|--0-0-4-x-x-0-0-4-x-x-0-0-4-| 

D#|----------------------------| 
A#|----------------------------| 
F#|----------------------5/6-7-| 
C#|--0-0-4-x-x-0-0-4-x-x-------| 
G#|--0-0-4-x-x-0-0-4-x-x-3/4-5-| 
C#|--0-0-4-x-x-0-0-4-x-x-------| 

D#|----------------------------| 
A#|----------------------------| 
F#|----------------------------| 
C#|--0-0-4-x-x-0-0-4-x-x-0-0-4-| 
G#|--0-0-4-x-x-0-0-4-x-x-0-0-4-| 
C#|--0-0-4-x-x-0-0-4-x-x-0-0-4-| 

  PM--------------------------|                
D#|----------------------------| 
A#|----------------------------| 
F#|----------------------------| 
C#|--0-0-4-x-x-0-0-6-6-6-6-5-5-| 
G#|--0-0-4-x-x-0-0-6-6-6-6-5-5-| 
C#|--0-0-4-x-x-0-0-6-6-6-6-5-5-| 


Sweet M.F. Riff 

D#|---------------------------------------| 
A#|---------------------------------------| 
F#|---------------------------------------| 
C#|---------------------------------------| 
G#|---------------------------------------| 
C#|--0h10h12-0-0-9-0-0-10-0-9-0-10--10-10-| 

D#|------------------------------------| 
A#|------------------------------------| 
F#|------------------------------------| 
C#|------------------------------------| 
G#|------------------------------------| 
C#|--0h10h12-0-0-9-0-0-10-0-9-0-7--7-7-| 


Bridge 3 

D#|-----------------------------------| 
A#|-----------------------------------| 
F#|-----------------------------------| 
C#|--2-0--1-0--3-6--2-0-2h3-0--2/3\\2-| 
G#|--2-0--1-0--3-6--2-0-2h3-0--2/3\\2-| 
C#|--2-0--1-0--3-6--2-0-2h3-0--2/3\\2-| 

D#|--------------------------------| 
A#|--------------------------------| 
F#|--------------------------------| 
C#|--2-0--3-0--1-0--2-0-2h3--0-2-0-| 
G#|--2-0--3-0--1-0--2-0-2h3--0-2-0-| 
C#|--2-0--3-0--1-0--2-0-2h3--0-2-0-| 


Outro 

D#|----------------| 
A#|----------------| 
F#|----------------| 
C#|--0-----------3-| 
G#|--0--------3--3-| 
C#|--0-----------3-| 

D#|----------------| 
A#|----------------| 
F#|----------------| 
C#|--0--0--0-----3-| 
G#|--0--0--0--3--3-| 
C#|--0--0--0-----3-|  
		  

See also:

chords Imagine Dragons - Radioactive chords Audioslave - Like A Stone (Ver. Acoustic) chords The Mamas and the Papas - California Dreaming chords Red Hot Chili Peppers - My Friends chords Audioslave - I Am the Highway chords Audioslave - Show Me How To Live
e-chords

Other versions:

chords Reveille - Killin Me
auto scroll beats size up size down change color hide chords simplify chords drawings columns
tab show chords e-chords YouTube Clip e-chords hide all tabs e-chords go to top tab

share