Queens Of The Stone Age

Turning On The Screw

Queens Of The Stone Age

chords Intermediate intermediate

by  TERCMORAES

save to print version add songbook text version e-mail correct tuner
chordsukulelecavacokeyboardtabbassdrumsharmonicaflute Guitar Pro
close

there isn't a video lesson for this song

chords

Turning On The Screw

	  		Música: Turnin' On The Screw  
Artista: Queens of the Stone Age 
Albúm: Era Vulgaris 
AfinaçãO: Padrão(E A D G B e) 


Intro e verso: 

e|-------------------------------------------------------------------------| 
B|-------------------------------------------------------------------------| 
G|-12b---10--------12b---10--------12b---10---------12---10---12b----------| 
D|-------------------------------------------------------------------------| 
A|-------------------------------------------------------------------------| 
E|-------------------------------------------------------------------------| 

Repita todo verso, (fazer bend na 12ª casa sobre a corda G ligeiramente) 

Intro e verso: 

e|-------------------------------------------------------------------------| 
B|-------------------------------------------------------------------------| 
G|-------------------------------------------------------------------------| 
D|-11-11---x-x-----11-11----x-x----11-11---x-x-----11-11-11----------------| 
A|-11-11---x-x-----11-11----x-x----11-11---x-x-----11-11-11----------------| 
E|--9--9---x-x------9--9----x-x----9--9----x-x-----9--9--9-----------------| 

e|---9---9---xx9---9---xx9---9---xx9-----9------------| 
B|---9---9---xx9---9---xx9---9---xx9-----9------------| 
G|---12--10--xx12--10--xx12--10--xx12-10-12~----------| Repetida por toda a Canção ... 
D|---11--11--xx11--11--xx11--11--xx11----11-----------|  
A|---11--11--xx11--11--xx11--11--xx11----11----x------| 
E|---9---9---xx9---9---xx9---9---xx9-----9-----x-9///-| 


Repita todo verso 

Refrão (1ª guitarra): 

e|-------------------------------------------------------------------------| 
B|-------------------------------------------------------------------------| 
G|-------------------------------------------------------------------------| 
D|-4-4---x-x---4-4----------7--x-x--7-7---x-x---7-7-----x-x-x-x-x-x--------| 
A|-4-4---x-x---4-4----------7--x-x--7-7---x-x---7-7-----x-x-x-x-x-x--------| 
E|-2-2---x-x---2-2----------5--x-x--5-5---x-x---5-5-----x-x-x-x-x-x--------| 

e|-9---9---xx9---9---xx9---9---xx9-----9------------| 
B|-9---9---xx9---9---xx9---9---xx9-----9------------| 
G|-12--10--xx12--10--xx12--10--xx12-10-12~----------| 
D|-11--11--xx11--11--xx11--11--xx11----11-----------|  
A|-11--11--xx11--11--xx11--11--xx11----11----x------| 
E|-9---9---xx9---9---xx9---9---xx9-----9-----x-9///-|x2 


Refrão (2ª guitarra): 

e|-------------------------------------------------------------------------| 
B|-14-----14-----17-16-14-14-----------------------------------------------| 
G|----11-----11----------------12b---10-----12b---10-----12b---10----------| 
D|-------------------------------------------------------------------------| 
A|-------------------------------------------------------------------------| 
E|-------------------------------------------------------------------------| 

e|-------------------------------------------------------------------------| 
B|------------------14----14-----17-16-14-14-------------------------------| 
G|-12b---10---12b------11----11---------------12b---10-----12b---10--------| 
D|-------------------------------------------------------------------------| 
A|-------------------------------------------------------------------------| 
E|-------------------------------------------------------------------------| 

e|--------------------------------(5)--------------------------------------| 
B|--------------------------------(5)--------------------------------------| 
G|-12b---10-----12b---10---12b----(5)--------------------------------------| 
D|-------------------------------------------------------------------------| 
A|-------------------------------------------------------------------------| 
E|-------------------------------------------------------------------------| 

Manipular harmônico no Refrão com whammy bar 

Riff depois do 1º Refrão: 

e|-------------------------------------------------------------------------| 
B|-------------------------------------------------------------------------| 
G|-------------------------------------------------------------------------| 
D|-------------------------------------------------------------------------| 
A|-----------10------------10-----------10-----------10--------------------| 
E|-12p9--12------12p9--12------12p9--12-----12p9--12-----------------------| 


Verso e rofrão novamente 


Solo: 

e|-------------------------------------------------------------------------| 
B|----------------------------------------------------------12b-----12b----| 
G|-----------------------------------------------12b--10-------------------| 
D|-----------------------------------------9--11---------10----------------| 
A|-2--4--4---4---4-----2--4--4--4------------------------------------------| 
E|---------------------------------2b--0-----------------------------------| 

e|-------------------------------------------------------------------------| 
B|-12b---12b-----12b--12-----------12----14-------------12--14--14b--14----| 
G|------------------------10------------------11b--11----------------------| 
D|----------------------------11-------------------------------------------| 
A|-------------------------------------------------------------------------| 
E|-------------------------------------------------------------------------| 

e|----14b------------------------------------------------------------------| 
B|-12-----12---------------------------------------------------------------| 
G|-------------------------------------------------------------------------| 
D|-------------------------------------------------------------------------| 
A|-------------------2--4--4--2--------------------------------------------| 
E|-------------------------------2b--0-------------------------------------| 


Toque esse riff depois do solo 

e|-------------------------------------------------------------------------| 
B|-------------------------------------------------------------------------| 
G|-------------------------------------------------------------------------| 
D|-------------------------------------------------------------------------| 
A|-----------10------------10-----------10-----------10--------------------| 
E|-12p9--12------12p9--12------12p9--12-----12p9--12-----------------------| 

Então use o riff acima até ao fim da música 
		  

Full key step upFull key step up
Half key step upHalf key step up
Half key step downHalf key step down
Full key step downFull key step down
hide glossary

See also:

chords Elton John - Your Song chords The Beatles - Hey Jude chords The Beatles - Yesterday chords Queen - Love of my Life chords Radiohead - Creep chords The Beatles - All My Loving
e-chords

Other versions:

chords Queens Of The Stone Age - Turning On The Screw
auto scroll beats size up size down change color hide chords simplify chords drawings columns
tab show chords e-chords YouTube Clip e-chords hide all tabs e-chords go to top tab

share