Of Mice & Men

home > Of Mice & Men

Unbreakable Chords

Of Mice & Men

Difficulty: nolevelnolevel

by hugo%5Frodrigues

tuner correct add songbook print version text version save to e-mail
chordsukulelecavacokeyboardtabbassdrumsharmonicsflute Guitar Pro
chords

Unbreakable

  		
Intro 
    Pm......                                         Pm...... 
D|------------------------------------------------|------------------------------------------| 
A|------------------------------------------------|------------------------------------------| 
F|------------------------------------------------|------------------------------------------| 
C|-0---------10--12--0----------------------------|-0---------10--12--0----3--3--3--3--3-----| 
G|-0---------10--12--0-----------8--------------7-|-0---------10--12--0----3--3--3--3--3-----| 
C|-0-0-0-0-0-10--12--0----0-8-10----0-10--0-7-9---|-0-0-0-0-0-10--12--0----3--3--3--3--3-----| 
    Pm......                                          Pm..... 
D|------------------------------------------------|------------------------------------------| 
A|------------------------------------------------|------------------------------------------| 
F|------------------------------------------------|------------------------------------------| 
C|-0---------10--12--0----------------------------|-0---------10--12--0----3--3--3--3--3-----| 
G|-0---------10--12--0-----------8--------------7-|-0---------10--12--0----3--3--3--3--3-----| 
C|-0-0-0-0-0-10--12--0----0-8-10----0-10--0-7-9---|-0-0-0-0-0-10--12--0----3--3--3--3--3-----| 

D|-----------------------| 
A|-----------------------| 
F|-11-12--7--9--5--------| 
C|-----------------------| 
G|-9--10--5--7--3--------| 
C|-----------------------| 

Verse 
            Pm..                                         Pm.. 
D|-------------------------------------------|----------------------------------------------| 
A|-------------------------------------------|----------------------------------------------| 
F|-------------------------------------------|----------------------------------------------| 
C|-0--0--0-------0--0--0---------------3-5/7-|--0--0--0-------0--0--0--------------3-5-3\2--| 
G|-0--0--0-------0--0--0-----------3-5-------|--0--0--0-------0--0--0-----------3-5---------| 
C|-0--0--0---0-0-0--0--0---3-7-6-5-----------|--0--0--0---0-0-0--0--0---3-7-6-5-------------| 

            Pm..                                          
D|-------------------------------------------|-------------------------------------------------| 
A|-------------------------------------------|-------------------------------------------------| 
F|-------------------------------------------|-------------------------------------------------| 
C|-0--0--0-------0--0--0---------------3-5/7-|-------------------------------------------------| 
G|-0--0--0-------0--0--0-----------3-5-------|-------------------------------------------------| 
C|-0--0--0---0-0-0--0--0---3-7-6-5-----------|-3-3-3-3-3-3-3-3-3-3-3-3-3-3-3-3-5-5-5-5-5-5-5-5-| 

D|--------------------| 
A|--------------------| 
F|--------------------| 
C|--------------------| 
G|--------------------| 
C|-1-1-1-1-1-1-1-1/12-| 

            Pm..                                         Pm.. 
D|-------------------------------------------|----------------------------------------------| 
A|-------------------------------------------|----------------------------------------------| 
F|-------------------------------------------|----------------------------------------------| 
C|-0--0--0-------0--0--0---------------3-5/7-|--0--0--0-------0--0--0--------------3-5-3\2--| 
G|-0--0--0-------0--0--0-----------3-5-------|--0--0--0-------0--0--0-----------3-5---------| 
C|-0--0--0---0-0-0--0--0---3-7-6-5-----------|--0--0--0---0-0-0--0--0---3-7-6-5-------------| 

            Pm..                                          
D|-------------------------------------------|-------------------------------------------------| 
A|-------------------------------------------|-------------------------------------------------| 
F|-------------------------------------------|-------------------------------------------------| 
C|-0--0--0-------0--0--0---------------3-5/7-|-------------------------------------------------| 
G|-0--0--0-------0--0--0-----------3-5-------|-------------------------------------------------| 
C|-0--0--0---0-0-0--0--0---3-7-6-5-----------|-3-3-3-3-3-3-3-3-3-3-3-3-3-3-3-3-5-5-5-5-5-5-5-5-| 

D|-----------------| 
A|-----------------| 
F|-----------------| 
C|-----------------| 
G|-----------------| 
C|-1-1-1-1-1-1-1-1-| 

Bridge 
    (16x 5s)                                 (16x 5s) 
D|--------------------------------|----------------------------------------| 
A|--------------------------------|----------------------------------------| 
F|--------------------------------|----------------------------------------| 
C|--------------------------------|----------------------------------------| 
G|-5-5-5-5-5-5-5-5-5-5-5-5-5-5-5-5|-3h5-5-5-5-5-5-5-5-5-5-5-5-5-5-5-5-5-3h5| 
C|--------------------------------|----------------------------------------| 
     (29x 1s) 
D|--------------------------------|-------------------------------------------| 
A|--------------------------------|-------------------------------------------| 
F|--------------------------------|-------------------------------------------| 
C|--------------------------------|-------------------------------------------| 
G|-1-1-1-1-1-1-1-1-1-1-1-1-1-1-1-1|-1-1-1-1-1-1-1-1-1-1-1-1-------------------| 
C|--------------------------------|-------------------------------------------| 


Chorus 
D|-----------------------------------|--------------------------------------------| 
A|-----------------------------------|--------------------------------------------| 
F|--10-10-10--12--7----7--7--7--7--7-|--14--14--14--17--12----12--12--12--12--12--| 
C|--8--8--8---10--5----5--5--5--5--5-|--------------------------------------------| 
G|--8--8--8---10--5----5--5--5--5--5-|--12--12--12--15--10----10--10--10--10--10--| 
C|--8--8--8---10--5----5--5--5--5--5-|--------------------------------------------| 

D|-----------------------------------|--------------------------------------------| 
A|-----------------------------------|--------------------------------------------| 
F|--10-10-10--12--7----7--7--7--7--7-|--14--14--14--17--12----12--12--12--12--12--| 
C|--8--8--8---10--5----5--5--5--5--5-|--------------------------------------------| 
G|--8--8--8---10--5----5--5--5--5--5-|--12--12--12--15--10----10--10--10--10--10--| 
C|--8--8--8---10--5----5--5--5--5--5-|--------------------------------------------| 

Bridge 2 (Almost identical to intro)  
Pm......                                         Pm...... 
D|------------------------------------------------|------------------------------------------| 
A|------------------------------------------------|------------------------------------------| 
F|------------------------------------------------|------------------------------------------| 
C|-0---------10--12--0----------------------------|-0---------10--12--0----3--3--3--3--3-----| 
G|-0---------10--12--0-----------8--------------7-|-0---------10--12--0----3--3--3--3--3-----| 
C|-0-0-0-0-0-10--12--0----0-8-10----0-10--0-7-9---|-0-0-0-0-0-10--12--0----3--3--3--3--3-----| 
    Pm......                                          Pm..... 
D|------------------------------------------------|------------------------------------------| 
A|------------------------------------------------|------------------------------------------| 
F|------------------------------------------------|-----------------------11-12--7--9--5-----| 
C|-0---------10--12--0----------------------------|-0---------10--12--0----------------------| 
G|-0---------10--12--0-----------8--------------7-|-0---------10--12--0---9--10--5--7--3-----| 
C|-0-0-0-0-0-10--12--0----0-8-10----0-10--0-7-9---|-0-0-0-0-0-10--12--0----------------------| 

verse 2 
            Pm..                                         Pm.. 
D|-------------------------------------------|----------------------------------------------| 
A|-------------------------------------------|----------------------------------------------| 
F|-------------------------------------------|----------------------------------------------| 
C|-0--0--0-------0--0--0---------------3-5/7-|--0--0--0-------0--0--0--------------3-5-3\2--| 
G|-0--0--0-------0--0--0-----------3-5-------|--0--0--0-------0--0--0-----------3-5---------| 
C|-0--0--0---0-0-0--0--0---3-7-6-5-----------|--0--0--0---0-0-0--0--0---3-7-6-5-------------| 

            Pm..                               (16x 3s)                         (8x 5s)            
D|-------------------------------------------|-------------------------------------------------| 
A|-------------------------------------------|-------------------------------------------------| 
F|-------------------------------------------|-------------------------------------------------| 
C|-0--0--0-------0--0--0---------------3-5/7-|-------------------------------------------------| 
G|-0--0--0-------0--0--0-----------3-5-------|-------------------------------------------------| 
C|-0--0--0---0-0-0--0--0---3-7-6-5-----------|-3-3-3-3-3-3-3-3-3-3-3-3-3-3-3-3-5-5-5-5-5-5-5-5-| 

   (8x 1s) 
D|--------------------| 
A|--------------------| 
F|--------------------| 
C|--------------------| 
G|--------------------| 
C|-1-1-1-1-1-1-1-1/12-| 
                          Pm......                         Pm...... 
D|-------------------------------------------|------------------------------------------------| 
A|-------------------------------------------|------------------------------------------------| 
F|-------------------------------------------|------------------------------------------------| 
C|-0--0--0-------0--0--0-------------0--0--0-|------0--0--0-------------0--0--0-------0--0--0-| 
G|-0--0--0-------0--0--0-------------0--0--0-|------0--0--0-------------0--0--0-------0--0--0-| 
C|-0--0--0---0-0-0--0--0---1--1--1---0--0--0-|--0-0-0--0--0---1--1--1---0--0--0---0-0-0--0--0-| 

  Pm......  (16x 3s)                         (8x 5s)              (8x 1s) 
D|-------------------------------------------|-----------------------------------| 
A|-------------------------------------------|-----------------------------------| 
F|-------------------------------------------|-----------------------------------| 
C|-------------------------------------------|-----------------------------------| 
G|-------------------------------------------|-----------------------------------| 
C|-1--1--1---3-3-3-3-3-3-3-3-3-3-3-3-3-3-3-3-|-5-5-5-5-5-5-5-5-5-1-1-1-1-1-1-1-1-| 

Chorus 
D|-----------------------------------|--------------------------------------------| 
A|-----------------------------------|--------------------------------------------| 
F|--10-10-10--12--7----7--7--7--7--7-|--14--14--14--17--12----12--12--12--12--12--| 
C|--8--8--8---10--5----5--5--5--5--5-|--------------------------------------------| 
G|--8--8--8---10--5----5--5--5--5--5-|--12--12--12--15--10----10--10--10--10--10--| 
C|--8--8--8---10--5----5--5--5--5--5-|--------------------------------------------| 

D|-----------------------------------|--------------------------------------------| 
A|-----------------------------------|--------------------------------------------| 
F|--10-10-10--12--7----7--7--7--7--7-|--14--14--14--17--12----12--12--12--12--12--| 
C|--8--8--8---10--5----5--5--5--5--5-|--------------------------------------------| 
G|--8--8--8---10--5----5--5--5--5--5-|--12--12--12--15--10----10--10--10--10--10--| 
C|--8--8--8---10--5----5--5--5--5--5-|--------------------------------------------| 

Bridge 3 (Bridge 2+)  
Pm......                                         Pm...... 
D|------------------------------------------------|------------------------------------------| 
A|------------------------------------------------|------------------------------------------| 
F|------------------------------------------------|------------------------------------------| 
C|-0---------10--12--0----------------------------|-0---------10--12--0----3--3--3--3--3-----| 
G|-0---------10--12--0-----------8--------------7-|-0---------10--12--0----3--3--3--3--3-----| 
C|-0-0-0-0-0-10--12--0----0-8-10----0-10--0-7-9---|-0-0-0-0-0-10--12--0----3--3--3--3--3-----| 
    Pm......                                          Pm..... 
D|------------------------------------------------|------------------------------------------| 
A|------------------------------------------------|------------------------------------------| 
F|------------------------------------------------|-----------------------11-12--7--9--5-----| 
C|-0---------10--12--0----------------------------|-0---------10--12--0----------------------| 
G|-0---------10--12--0-----------8--------------7-|-0---------10--12--0---9--10--5--7--3-----| 
C|-0-0-0-0-0-10--12--0----0-8-10----0-10--0-7-9---|-0-0-0-0-0-10--12--0--------------------0-| 

D|---------------------------------|------------------------------------------| 
A|--15--16--15--16--15--16--15--19-|-15--16--15--16--15--16-15--19------------| 
F|---------------------------------|------------------------------------------| 
C|---------------------------------|------------------------------------------| 
G|---------------------------------|------------------------------------------| 
C|---------------------------------|------------------------------------------| 

verse 3 
   Pm.....                         Pm......            Pm.....            
D|----------------------------------------------------|---------------------------------------| 
A|----------------------------------------------------|---------------------------------------| 
F|----------------------------------------------------|---------------------------------------| 
C|----------------------------------------------------|---------------------------------------| 
G|----------------------------------------------------|---------------------------------------| 
C|-0-0-0-0-12\0---1--10/13---0-10--0-0-0-0--10-13-12~-|-0-0-0-0--0-10-13~-13~-13~-13~-13~-13~-| 

   Pm.....                         Pm......            Pm.....            
D|----------------------------------------------------|---------------------------------------| 
A|----------------------------------------------------|---------------------------------------| 
F|----------------------------------------------------|---------------------------------------| 
C|----------------------------------------------------|---------------------------------------| 
G|----------------------------------------------------|---------------------------------------| 
C|-0-0-0-0-12\0---1--10/13---0-10--0-0-0-0--10-13-12~-|-0-0-0-0--0-10-13~-13~-13~-13~-13~-13~-| 

   Pm.....                         Pm......            Pm.....        Pm...............          
D|----------------------------------------------------|---------------------------------| 
A|----------------------------------------------------|---------------------------------| 
F|----------------------------------------------------|---------------------------------| 
C|----------------------------------------------------|----------------1--1--1--1--1--1-| 
G|----------------------------------------------------|----------------1--1--1--1--1--1-| 
C|-0-0-0-0-12\0---1--10/13---0-10--0-0-0-0--10-13-12~-|-0-0-0-0--0-10--1--1--1--1--1--1-| 

   Pm.....                         Pm......            Pm.....            
D|----------------------------------------------------|---------------------------------------| 
A|----------------------------------------------------|---------------------------------------| 
F|----------------------------------------------------|---------------------------------------| 
C|----------------------------------------------------|---------------------------------------| 
G|----------------------------------------------------|---------------------------------------| 
C|-0-0-0-0-12\0---1--10/13---0-10--0-0-0-0--10-13-12~-|-0-0-0-0--0-10-13~-13~-13~-13~-13~-13~-| 

Bridge 4 
    (16x 5s)                                 (16x 5s) 
D|--------------------------------|----------------------------------------| 
A|--------------------------------|----------------------------------------| 
F|--------------------------------|----------------------------------------| 
C|--------------------------------|----------------------------------------| 
G|-5-5-5-5-5-5-5-5-5-5-5-5-5-5-5-5|-3h5-5-5-5-5-5-5-5-5-5-5-5-5-5-5-5-5-3h5| 
C|--------------------------------|----------------------------------------| 
     (32x 1s) 
D|--------------------------------|--------------------------------| 
A|--------------------------------|--------------------------------| 
F|--------------------------------|--------------------------------| 
C|--------------------------------|--------------------------------| 
G|-1-1-1-1-1-1-1-1-1-1-1-1-1-1-1-1|-1-1-1-1-1-1-1-1-1-1-1-1-1-1-1--| 
C|--------------------------------|--------------------------------| 
    (16x 5s)                                 (16x 5s) 
D|--------------------------------|----------------------------------------| 
A|--------------------------------|----------------------------------------| 
F|--------------------------------|----------------------------------------| 
C|--------------------------------|----------------------------------------| 
G|-5-5-5-5-5-5-5-5-5-5-5-5-5-5-5-5|-3h5-5-5-5-5-5-5-5-5-5-5-5-5-5-5-5-5-3h5| 
C|--------------------------------|----------------------------------------| 
     (29x 1s) 
D|--------------------------------|-------------------------------------------| 
A|--------------------------------|-------------------------------------------| 
F|--------------------------------|-------------------------------------------| 
C|--------------------------------|-------------------------------------------| 
G|-1-1-1-1-1-1-1-1-1-1-1-1-1-1-1-1|-1-1-1-1-1-1-1-1-1-1-1-1-------------------| 
C|--------------------------------|-------------------------------------------| 

Chorus 
D|-----------------------------------|--------------------------------------------| 
A|-----------------------------------|--------------------------------------------| 
F|---------------------7--7--7--7--7-|--14--14--14--17--12----12--12--12--12--12--| 
C|---------------------5--5--5--5--5-|--------------------------------------------| 
G|---------------------5--5--5--5--5-|--12--12--12--15--10----10--10--10--10--10--| 
C|---------------------5--5--5--5--5-|--------------------------------------------| 

D|-----------------------------------|--------------------------------------------| 
A|-----------------------------------|--------------------------------------------| 
F|--10-10-10--12--7----7--7--7--7--7-|--14--14--14--17--12----12--12--12--12--12--| 
C|--8--8--8---10--5----5--5--5--5--5-|--------------------------------------------| 
G|--8--8--8---10--5----5--5--5--5--5-|--12--12--12--15--10----10--10--10--10--10--| 
C|--8--8--8---10--5----5--5--5--5--5-|--------------------------------------------| 

D|-----------------------------------|--------------------------------------------| 
A|-----------------------------------|--------------------------------------------| 
F|--10-10-10--12--7----7--7--7--7--7-|--14--14--14--17--12----12--12--12--12--12--| 
C|--8--8--8---10--5----5--5--5--5--5-|--------------------------------------------| 
G|--8--8--8---10--5----5--5--5--5--5-|--12--12--12--15--10----10--10--10--10--10--| 
C|--8--8--8---10--5----5--5--5--5--5-|--------------------------------------------| 


D|-----------------------------------|--------------------------------------------| 
A|-----------------------------------|--------------------------------------------| 
F|--10-10-10--12--7----7--7--7--7--7-|--14--14--14--17--12----12--12--12--12--12--| 
C|--8--8--8---10--5----5--5--5--5--5-|--------------------------------------------| 
G|--8--8--8---10--5----5--5--5--5--5-|--12--12--12--15--10----10--10--10--10--10--| 
C|--8--8--8---10--5----5--5--5--5--5-|--------------------------------------------| 

Outro (Same as verse 3) 
   Pm.....                         Pm......            Pm.....            
D|----------------------------------------------------|---------------------------------------| 
A|----------------------------------------------------|---------------------------------------| 
F|----------------------------------------------------|---------------------------------------| 
C|----------------------------------------------------|---------------------------------------| 
G|----------------------------------------------------|---------------------------------------| 
C|-0-0-0-0-12\0---1--10/13---0-10--0-0-0-0--10-13-12~-|-0-0-0-0--0-10-13~-13~-13~-13~-13~-13~-| 

************************************ 
| h   Hammer-on 
| /   Slide up 
| \   Slide down 
| ~   Vibrato 
| Pm  Palm mute 

************************************ 
	  

Search Paypal
auto scroll beats size up size down change color hide chords simplify chords drawings columns
tab show chords e-chords YouTube Clip e-chords hide all tabs e-chords go to top tab