Nicolai Dunger

Clouds

Nicolai Dunger

chords Easy easy

by  ALYSLIMA

save to print version add songbook text version e-mail correct tuner
chordsukulelecavacokeyboardtabbassdrumsharmonicaflute Guitar Pro
close

there isn't a video lesson for this song

chords

Clouds

Key:  C More
Clouds Key GG
Clouds Key G#G#
Clouds Key AA
Clouds Key A#A#(one step down)
Clouds Key BB(half step down)
Clouds Key CC(original key)
Clouds Key C#C#(half step up)
Clouds Key DD(one step up)
Clouds Key D#D#
Clouds Key EE
Clouds Key FF
Clouds Key F#F#
Capo on 3rd fret
	  		
 

           C/G 
E|-------------------------| 
B|---1-1--1-1--1-1--1-1----| 
G|---0-0--0-0--0-0--0-0----| 
D|---2-2--2-2--2-2--2-2----| 
A|-3---------3-------------| 
E|------3---------3--------| 
        
E|------------------------| 
B|--1-1--1-1--1-1---------| 
G|--0-0--0-0--0-0---------| 
D|--2-2--2-2--2-2---------| 
A|-----2-------- 2--------| 
E|-0--------0-------------| 
       
E|-------------------------------------------------| 
B|---1-1---1-1--1-1--1-1----1-1---1-1---1-1---1-1--| 
G|---0-0---0-0--0-0--0-0----0-0---0-0---0-0---0-0--|then back to the top 
D|---2-2---2-2--2-2--2-2----0-0---0-0---0-0---0-0--|for repeat 
A|-------0----------0-----------2------------2-----| 
E|-1-----------1----------3-----------3------------| 
          lick 1                      lick 2 
E|---------------------------|------------------------------------------| 
B|---------------------------|------------------------------------------| 
G|---------------------------|-----0-2----0-2---------------------------| 
D|--2s5-3-2-0----------------|---h2----h2------3p2p0--------------------| 
A|------------3s5-3-2-2h3----|----------------------3-5-5-5h7-5-3-------| 
E|---------------------------|------------------------------------------| 

 
		  

Full key step upFull key step up
Half key step upHalf key step up
Half key step downHalf key step down
Full key step downFull key step down
auto scroll beats size up size down change color hide chords simplify chords drawings columns
tab show chords e-chords YouTube Clip e-chords hide all tabs e-chords go to top tab

share