Misc Your Songs

home > Misc Your Songs

Sean D Simonds A World Burn Yesterday - Behead The Witch Chords

Misc Your Songs

Difficulty: EasyEasy

by edsooliveira

tuner correct add songbook print version text version save to e-mail
chordsukulelecavacokeyboardtabbassdrumsharmonicsflute Guitar Pro
chords

Sean D Simonds A World Burn Yesterday - Behead The Witch

  		Intro 
D|---------------------------------------------------------------------------------------------------| 
A|--------------------------------------------------------------------------------10-9-10/13-12~-13b~| 
F|--------------------------------------------10-9~-------------------------10-9---------------------| 
C|---------------------10-9~-------------------------------------------10-9--------------------------| 
G|-3/7---9-10-12-10-9---------9-10-12-10-9-----------9-10-9-12-10-9----------------------------------| 
C|---------------------------------------------------------------------------------------------------| 
                                                   Riff A (Verse) 
D---------------------------------------------------------------------------------------------| 
A---------------------------------------------------------------------------------------------| 
F---------------------------------------------------------------------------------------------| 
C---------------------------------------------------------------------------------------------| 
G--------------------------8----5~---------------------------10--7~---------------------------| 
C-0--0-0-0-000-000-0-5-0-0---0------0--0-0-0-000-000-0-7-0-0---0------------------------------| 
     . . . ... ... .   . .   .         . . . ... ... .   . .   . 

D|--------------------------------------------------------------------------------------------| 
A|--------------------------------------------------------------------------------------------| 
F|--------------------------------------------------------------------------------------------| 
C|--------------------------------------------------------------------------------------------| 
G|-------------------------12---9~----12-15-13-12-15-13-12~-----------------------------------| 
C|-0--0-0-0-000-000-0-9-0-0---0---------------------------------------------------------------| 
     . . . ... ... .   . .   . 

D|---------------------------------------------------------------------------------------------| 
A|---------------------------------------------------------------------------------------------| 
F|---------------------------------------------------------------------------------------------| 
C|---------------------------------------------------------------------------------------------| 
G|--------------------------8----5~---------------------------10--7~---------------------------| 
C|-0--0-0-0-000-000-0-5-0-0---0------0--0-0-0-000-000-0-7-0-0---0------------------------------| 
     . . . ... ... .   . .   .         . . . ... ... .   . .   . 

D|--------------------------------------------------------------------------------------------| 
A|--------------------------------------------------------------------------------------------| 
F|--------------------------------------------------------------------------------------------| 
C|--------------------------------------------------------------------------------------------| 
G|-------------------------12---9~----12-15-13-12-15-13-12~-----------------------------------| 
C|-0--0-0-0-000-000-0-9-0-0---0---------------------------------------------------------------| 
     . . . ... ... .   . .   . 

 Chorus 
D|------------------------------------------------------------------------------------------------------| 
A|------------------------------------------------------------------------------------------------------| 
F|------------------------------------------------------------------------------------------------------| 
C|---------------------------------------------------------------------------7-----6~-------------------| 
G|-5------8------5------4-------5-----7~----5--------8--------5------4----------------------------------| 
C|----0-0---0-0----0-0----0-0-----0-------------0-0-----0-0-----0-0----0-0------0-----------------------| 
     . .   . .    . .    . .     .             . .     . .     . .    . .      . 

D|-------------------------------------------------------------------------------------------| 
A|-------------------------------------------------------------------------------------------| 
F|-------------------------------------------99999999--1010101010101010----------------------| 
C|-------------------------------------------xxxxxxxxx-xxxxxxxxxxxxxxxx----------------------| 
G|-5--------8-------5-----4-------5----7~----77777777--8-8-8-8-8-8-8-8-----------------------| 
C|-----0-0----0-0-----0-0----0-0----0--------------------------------------------------------| 
      .  .   . .     . .    . .    . 

D|------------------------------------------------------------------------------------------------------| 
A|------------------------------------------------------------------------------------------------------| 
F|------------------------------------------------------------------------------------------------------| 
C|---------------------------------------------------------------------------7-----6~-------------------| 
G|-5------8------5------4-------5-----7~----5--------8--------5------4----------------------------------| 
C|----0-0---0-0----0-0----0-0-----0-------------0-0-----0-0-----0-0----0-0------0-----------------------| 
     . .   . .    . .    . .     .             . .     . .     . .    . .      . 

D|-------------------------------------------------------------------------------------------| 
A|-------------------------------------------------------------------------------------------| 
F|-------------------------------------------99999999--1010101010101010----------------------| 
C|-------------------------------------------xxxxxxxxx-xxxxxxxxxxxxxxxx----------------------| 
G|-5--------8-------5-----4-------5----7~----77777777--8-8-8-8-8-8-8-8-----------------------| 
C|-----0-0----0-0-----0-0----0-0----0--------------------------------------------------------| 
      .  .   . .     . .    . .    . 

D|------------------------------------------------------------------------------------------| 
A|------------------------------------------------------------------------------------------| 
F|------------------------------------------------------------------------------------------| 
C|-7------5------3-------2--------------------0~--------------------------------------------| 
G|-7------5------3-------2--------3-----2~----0~--------------------------------------------| 
C|-7-0-0--5-0-0--3-0-0---2-0-0------0---------0~-----/12\----/15\---------------------------| 
    . .    . .    . .     . .      . 
RIFF B 
D----------------------------------------------------------------------------------------------------| 
A----------------------------------------------------------------------------------------------------| 
F----------------------------------------------------------------------------------------------------| 
C------2h3------4h5-----6h7--------------------------------------------------------------------------| 
G------2h3------4h5-----6h7-6h7p6-9p6----------------------------------------------------------------| 
C-0-0--2h3-0-0--4h5-0-0-6h7--------------------------------------------------------------------------| 
  . .      . .      . . 

D|------------------------------------------------------------------------------------------------------| 
A|---------------------------------------------9--------------------------------------------------------| 
F|---------------------------------------------7--------------------------------------------------------| 
C|------2h3------4h5-----6h7----------------------------------------------------------------------------| 
G|------2h3------4h5-----6h7----------------------------------------------------------------------------| 
C|-0-0--2h3-0-0--4h5-0-0-6h7---0-0----------------------------------------------------------------------| 
  .  .     . .      . .       .  . 

D|----------------------------------------------------------------------------------------------------| 
A|----------------------------------------------------------------------------------------------------| 
F|----------------------------------------------------------------------------------------------------| 
C|------2h3------4h5-----6h7--------------------------------------------------------------------------| 
G|------2h3------4h5-----6h7-6h7p6-9p6----------------------------------------------------------------| 
C|-0-0--2h3-0-0--4h5-0-0-6h7--------------------------------------------------------------------------| 
  . .      . .      . . 

D|---------------------------------------------------------------------------------------------------------| 
A|---------------------------------------------------------------------------------------------------------| 
F|------------------------9-10-/12-12~---------------------------------------------------------------------| 
C|-------------7-9-10--------------------------12/---------------------------------------------------------| 
G|-7-9-10--------------------------------------12/---------------------------------------------------------| 
C|---------------------------------------------12/---------------------------------------------------------| 

 RIFF A 
D|---------------------------------------------------------------------------------------------| 
A|---------------------------------------------------------------------------------------------| 
F|---------------------------------------------------------------------------------------------| 
C|---------------------------------------------------------------------------------------------| 
G|--------------------------8----5~---------------------------10--7~---------------------------| 
C|-0--0-0-0-000-000-0-5-0-0---0------0--0-0-0-000-000-0-7-0-0---0------------------------------| 
     . . . ... ... .   . .   .         . . . ... ... .   . .   . 

D|--------------------------------------------------------------------------------------------| 
A|--------------------------------------------------------------------------------------------| 
F|--------------------------------------------------------------------------------------------| 
C|--------------------------------------------------------------------------------------------| 
G|-------------------------12---9~----12-15-13-12-15-13-12~-----------------------------------| 
C|-0--0-0-0-000-000-0-9-0-0---0---------------------------------------------------------------| 
     . . . ... ... .   . .   . 

D|---------------------------------------------------------------------------------------------| 
A|---------------------------------------------------------------------------------------------| 
F|---------------------------------------------------------------------------------------------| 
C|---------------------------------------------------------------------------------------------| 
G|--------------------------8----5~---------------------------10--7~---------------------------| 
C|-0--0-0-0-000-000-0-5-0-0---0------0--0-0-0-000-000-0-7-0-0---0------------------------------| 
     . . . ... ... .   . .   .         . . . ... ... .   . .   . 

D|--------------------------------------------------------------------------------------------| 
A|--------------------------------------------------------------------------------------------| 
F|--------------------------------------------------------------------------------------------| 
C|--------------------------------------------------------------------------------------------| 
G|-------------------------12---9~----12-15-13-12-15-13-12~-----------------------------------| 
C|-0--0-0-0-000-000-0-9-0-0---0---------------------------------------------------------------| 
     . . . ... ... .   . .   . 

 Chorus 
D|------------------------------------------------------------------------------------------------------| 
A|------------------------------------------------------------------------------------------------------| 
F|------------------------------------------------------------------------------------------------------| 
C|---------------------------------------------------------------------------7-----6~-------------------| 
G|-5------8------5------4-------5-----7~----5--------8--------5------4----------------------------------| 
C|----0-0---0-0----0-0----0-0-----0-------------0-0-----0-0-----0-0----0-0------0-----------------------| 
     . .   . .    . .    . .     .             . .     . .     . .    . .      . 

D|-------------------------------------------------------------------------------------------| 
A|-------------------------------------------------------------------------------------------| 
F|-------------------------------------------99999999--1010101010101010----------------------| 
C|-------------------------------------------xxxxxxxxx-xxxxxxxxxxxxxxxx----------------------| 
G|-5--------8-------5-----4-------5----7~----77777777--8-8-8-8-8-8-8-8-----------------------| 
C|-----0-0----0-0-----0-0----0-0----0--------------------------------------------------------| 
      .  .   . .     . .    . .    . 

D|------------------------------------------------------------------------------------------------------| 
A|------------------------------------------------------------------------------------------------------| 
F|------------------------------------------------------------------------------------------------------| 
C|---------------------------------------------------------------------------7-----6~-------------------| 
G|-5------8------5------4-------5-----7~----5--------8--------5------4----------------------------------| 
C|----0-0---0-0----0-0----0-0-----0-------------0-0-----0-0-----0-0----0-0------0-----------------------| 
     . .   . .    . .    . .     .             . .     . .     . .    . .      . 

D|-------------------------------------------------------------------------------------------| 
A|-------------------------------------------------------------------------------------------| 
F|-------------------------------------------99999999--1010101010101010----------------------| 
C|-------------------------------------------xxxxxxxxx-xxxxxxxxxxxxxxxx----------------------| 
G|-5--------8-------5-----4-------5----7~----77777777--8-8-8-8-8-8-8-8-----------------------| 
C|-----0-0----0-0-----0-0----0-0----0--------------------------------------------------------| 
      .  .   . .     . .    . .    . 

 Bridge 
D|------------------------------------------------------------------------------------------------| 
A|------------------------------------------------------------------------------------------------| 
F|------------------------------------------------------------------------------------------------| 
C|-7-----5-----3-----2---------------------0~------1~--3~------5~--7~------9~--10~----------------| 
G|-7-----5-----3-----2------3-----2~-------0~------1~--3~------5~--7~------9~--10~----------------| 
C|-7-0-0-5-0-0-3-0-0-2-0-0------0----------0~------1~--3~------5~--7~------9~--10~----------------| 
    . .   . .   . .   . .      . 

D|---------------------------------------------------------------------------------------------------------| 
A|---------------------------------------------------------------------------------------------------------| 
F|---------------------------------------------------------------------------------------------------------| 
C|-13-12-13-15-13-12---------------------------------------------------------------------------------------| 
G|-13-12-13-15-13-12---------------------------------------------------------------------------------------| 
C|-13-12-13-15-13-12---------------------------------------------------------------------------------------| 

D|--------------------------------------------------------------------------------------------------------| 
A|--------------------------------------------------------------------------------------------------------| 
F|--------------------------------------------------------------------------------------------------------| 
C|-0~------1~--3~------5~--7~------9~--10~----------------------------------------------------------------| 
G|-0~------1~--3~------5~--7~------9~--10~----------------------------------------------------------------| 
C|-0~------1~--3~------5~--7~------9~--10~----------------------------------------------------------------| 

D|----------------------------------------------------------------------------------------------------| 
A|----------------------------------------------------------------------------------------------------| 
F|---------------------10/7-------7/8-----8-----8-----------------------------------------------------| 
C|-13-12-13-15-13-12---10/7-------7/8-----8-----8----------5/7-7/5------------------------------------| 
G|-13-12-13-15-13-12---8/5--------5/6-----6-----6----------3/5-5/3------------------------------------| 
C|-13-12-13-15-13-12---------0-0-------0-----0------0-0-----------------------------------------------| 
                            . .       .     .      . . 

D|-------------------------------------------8------------------------------| 
A|-------------------------------------------8------------------------------| 
F|--10/7-------7/8-----8-----8---------------8------------------------------| 
C|--10/7-------7/8-----8-----8-------5/7------------------------------------| 
G|--8/5--------5/6-----6-----6-------3/5------------------------------------| 
C|--------0-0-------0-----0------0-0----------------------------------------| 
         . .       .     .      . . 

D|----------------------------------------------------------------------------| 
A|----------------------------------------------------------------------------| 
F|--10/7-------7/8-----8-----8------------------------------------------------| 
C|--10/7-------7/8-----8-----8-------5/7-7/5----------------------------------| 
G|--8/5--------5/6-----6-----6-------3/5-5/3----------------------------------| 
C|--------0-0-------0-----0------0-0------------------------------------------| 
         . .       .     .      . . 

D|-------------------------------------------8----------------------------------------| 
A|-------------------------------------------8----------------------------------------| 
F|--10/7-------7/8-----8-----8---------------8--99999999/1010101010101010-------------| 
C|--10/7-------7/8-----8-----8-------5/7--------xxxxxxxxxxxxxxxxxxxxxxxx--------------| 
G|--8/5--------5/6-----6-----6-------3/5--------7777777/8-8-8-8-8-8-8-8---------------| 
C|--------0-0-------0-----0------0-0--------------------------------------------------| 
         . .       .     .      . . 

D|----------------------------------------------------------------------------| 
A|----------------------------------------------------------------------------| 
F|--10/7-------7/8-----8-----8------------------------------------------------| 
C|--10/7-------7/8-----8-----8-------5/7-7/5----------------------------------| 
G|--8/5--------5/6-----6-----6-------3/5-5/3----------------------------------| 
C|--------0-0-------0-----0------0-0------------------------------------------| 
         . .       .     .      . . 

D|-------------------------------------------8------------------------------| 
A|-------------------------------------------8------------------------------| 
F|--10/7-------7/8-----8-----8---------------8------------------------------| 
C|--10/7-------7/8-----8-----8-------5/7------------------------------------| 
G|--8/5--------5/6-----6-----6-------3/5------------------------------------| 
C|--------0-0-------0-----0------0-0----------------------------------------| 
         . .       .     .      . . 

D|----------------------------------------------------------------------------| 
A|----------------------------------------------------------------------------| 
F|--10/7-------7/8-----8-----8------------------------------------------------| 
C|--10/7-------7/8-----8-----8-------5/7-7/5----------------------------------| 
G|--8/5--------5/6-----6-----6-------3/5-5/3----------------------------------| 
C|--------0-0-------0-----0------0-0------------------------------------------| 
         . .       .     .      . . 

D|-------------------------------------------8----------------------------------------| 
A|-------------------------------------------8----------------------------------------| 
F|--10/7-------7/8-----8-----8---------------8--99999999/1010101010101010-------------| 
C|--10/7-------7/8-----8-----8-------5/7--------xxxxxxxxxxxxxxxxxxxxxxxx--------------| 
G|--8/5--------5/6-----6-----6-------3/5--------7777777/8-8-8-8-8-8-8-8---------------| 
C|--------0-0-------0-----0------0-0--------------------------------------------------| 
         . .       .     .      . . 

D|--------------------------------------------------------------------------------------------------------| 
A|--------------------------------------------------------------------------------------------------------| 
F|--------------------------------------------------------------------------------------------------------| 
C|-0~-----------------------------------------------------------------------------------------------------| 
G|-0~----PICK SCRAPE--------------------------------------------------------------------------------------| 
C|-0~----PICK SCRAPE--------------------------------------------------------------------------------------| 

 RIFF A 
D|---------------------------------------------------------------------------------------------| 
A|---------------------------------------------------------------------------------------------| 
F|---------------------------------------------------------------------------------------------| 
C|---------------------------------------------------------------------------------------------| 
G|--------------------------8----5~---------------------------10--7~---------------------------| 
C|-0--0-0-0-000-000-0-5-0-0---0------0--0-0-0-000-000-0-7-0-0---0------------------------------| 
     . . . ... ... .   . .   .         . . . ... ... .   . .   . 

D|--------------------------------------------------------------------------------------------| 
A|--------------------------------------------------------------------------------------------| 
F|--------------------------------------------------------------------------------------------| 
C|--------------------------------------------------------------------------------------------| 
G|-------------------------12---9~----12-15-13-12-15-13-12~-----------------------------------| 
C|-0--0-0-0-000-000-0-9-0-0---0---------------------------------------------------------------| 
     . . . ... ... .   . .   . 

D|---------------------------------------------------------------------------------------------| 
A|---------------------------------------------------------------------------------------------| 
F|---------------------------------------------------------------------------------------------| 
C|---------------------------------------------------------------------------------------------| 
G|--------------------------8----5~---------------------------10--7~---------------------------| 
C|-0--0-0-0-000-000-0-5-0-0---0------0--0-0-0-000-000-0-7-0-0---0------------------------------| 
     . . . ... ... .   . .   .         . . . ... ... .   . .   . 

D|--------------------------------------------------------------------------------------------| 
A|--------------------------------------------------------------------------------------------| 
F|--------------------------------------------------------------------------------------------| 
C|--------------------------------------------------------------------------------------------| 
G|-------------------------12---9~----12-15-13-12-15-13-12~-----------------------------------| 
C|-0--0-0-0-000-000-0-9-0-0---0---------------------------------------------------------------| 
     . . . ... ... .   . .   . 
Chorus 
D------------------------------------------------------------------------------------------------------| 
A------------------------------------------------------------------------------------------------------| 
F------------------------------------------------------------------------------------------------------| 
C---------------------------------------------------------------------------7-----6~-------------------| 
G-5------8------5------4-------5-----7~----5--------8--------5------4----------------------------------| 
C----0-0---0-0----0-0----0-0-----0-------------0-0-----0-0-----0-0----0-0------0-----------------------| 
     . .   . .    . .    . .     .             . .     . .     . .    . .      . 

D|-------------------------------------------------------------------------------------------| 
A|-------------------------------------------------------------------------------------------| 
F|-------------------------------------------99999999--1010101010101010----------------------| 
C|-------------------------------------------xxxxxxxxx-xxxxxxxxxxxxxxxx----------------------| 
G|-5--------8-------5-----4-------5----7~----77777777--8-8-8-8-8-8-8-8-----------------------| 
C|-----0-0----0-0-----0-0----0-0----0--------------------------------------------------------| 
      .  .   . .     . .    . .    . 

D|------------------------------------------------------------------------------------------------------| 
A|------------------------------------------------------------------------------------------------------| 
F|------------------------------------------------------------------------------------------------------| 
C|---------------------------------------------------------------------------7-----6~-------------------| 
G|-5------8------5------4-------5-----7~----5--------8--------5------4----------------------------------| 
C|----0-0---0-0----0-0----0-0-----0-------------0-0-----0-0-----0-0----0-0------0-----------------------| 
     . .   . .    . .    . .     .             . .     . .     . .    . .      . 

D|-------------------------------------------------------------------------------------------| 
A|-------------------------------------------------------------------------------------------| 
F|-------------------------------------------99999999--1010101010101010----------------------| 
C|-------------------------------------------xxxxxxxxx-xxxxxxxxxxxxxxxx----------------------| 
G|-5--------8-------5-----4-------5----7~----77777777--8-8-8-8-8-8-8-8-----------------------| 
C|-----0-0----0-0-----0-0----0-0----0--------------------------------------------------------| 
      .  .   . .     . .    . .    . 

 BREAKDOWN 
D|------------------------------------------------------------------------------------------| 
A|------------------------------------------------------------------------------------------| 
F|------------------------------------------------------------------------------------------| 
C|-0~--------------------0~------------0~----------------3-1-3-1-4-3-1-3--------------------| 
G|-0~--------------------0~------------0~----------------3-1-3-1-4-3-1-3--------------------| 
C|-0~---0-0-0-000-000----0-00---000----0-0-0-0-000-000---3-1-3-1-4-3-1-3--------------------| 
       . . . ... ...      ..   ...      . . . ... ...   . . . . . . . . 

D|------------------------------------------------------------------------------------------| 
A|-------------------------------------------------------------------17---------------------| 
F|-------------------------------------------------------------------x----------------------| 
C|-0~-------------------0~-----------0~---------------0~-------------15---------------------| 
G|-0~-------------------0~-----------0~---------------0~------------------------------------| 
C|-0~---0-0-0-000-000---0-0-0-000----0-0-0-0-000-000--0--0-0-000----------------------------| 
       . . . ... ...     . . ...      . . . ... ...     . . ... 

D|------------------------------------------------------------------------------------------| 
A|------------------------------------------------------------------------------------------| 
F|------------------------------------------------------------------------------------------| 
C|-0~--------------------0~------------0~----------------3-1-3-1-4-3-1-3--------------------| 
G|-0~--------------------0~------------0~----------------3-1-3-1-4-3-1-3--------------------| 
C|-0~---0-0-0-000-000----0-00---000----0-0-0-0-000-000---3-1-3-1-4-3-1-3--------------------| 
       . . . ... ...      ..   ...      . . . ... ...   . . . . . . . . 

D|------------------------------------------------------------------------------------------| 
A|-------------------------------------------------------------------17---------------------| 
F|-------------------------------------------------------------------x----------------------| 
C|-0~-------------------0~-----------0~---------------0~-------------15---------------------| 
G|-0~-------------------0~-----------0~---------------0~------------------------------------| 
C|-0~---0-0-0-000-000---0-0-0-000----0-0-0-0-000-000--0--0-0-000----------------------------| 
       . . . ... ...     . . ...      . . . ... ...     . . ... 

 ENDING 
D|-----------------------------------------------------------------------------------------------| 
A|-----------------------------------------------------------------------------------------------| 
F|-----------------------------------------------------------------------------------------------| 
C|------------------------------------------------------------------0x---------------------------| 
G|-5-----8------5------4------5-----7~----12-15-13-12-15-13-12------0x---------------------------| 
C|---0-0---0-0----0-0----0-0-----0----------------------------------0x---------------------------| 



************************************ 

| /  Slide up 
| ~  Vibrato 
| .  Staccato 
| x  Dead note 
| \  Slide down 
| h  Hammer-on 
| p  Pull-off 

************************************ 
	  

Full key step upFull key step up
Half key step upHalf key step up
Half key step downHalf key step down
Full key step downFull key step down
Search Paypal
auto scroll beats size up size down change color hide chords simplify chords drawings columns
tab show chords e-chords YouTube Clip e-chords hide all tabs e-chords go to top tab