Miptrock

Olhos fechados

Miptrock

chords Intermediate intermediate

by  LUCASGUITAR7

save to print version add songbook text version e-mail correct tuner
chordsukulelecavacokeyboardtabbassdrumsharmonicaflute Guitar Pro
close

there isn't a video lesson for this song

chords

Olhos fechados

	  		Introdução: E C#m 

Essa parte acompanha quase toda a música. 
e|-----------------------------| 
b|-----------------------------| 
G|-11/13-13-9-9-9-9--9-9-9-9---| 
D|-----------------------------| 
A|--9/11-11-7-7-7-7--7-7-7-7---| 
E|-----------------------------| 

E 
O que você me faz  
o que sempre te fez  
   C#m 
sentir o fim  
E 
Não posso me esconder  
e nem me enganar,  
C#m 
pra sempre  
    A         B 
Eu quero sim descobrir,  

E        B 
Vem, me mostra  
    C#m     A 
Por que se foi  
E       B 
Vem, e aposta  
   C#m     A 
no nosso amor  

F#m G# E 

  E  
Sozinho aqui estou  
pensando em você  
   C#m  
me sinto bem  
    E 
Não posso me esconder  
e nem me enganar  
    C#m   
pra sempre  

    A         B       
Eu quero sim descobrir  

E        B 
Vem, me mostra  
    C#m     A 
Por que se foi  
E       B 
Vem, e aposta  
   C#m     A 
no nosso amor   
  
F#m G# E 

e|---------------------------------------------------------------------| 
b|-7---7---9---9---7---7---9---9---7---7---9---9---10---10---9---9-----| 
G|---9---9---9---9---9---9---9---9---9---9---9---9----9----9---9---9---| 
D|---------------------------------------------------------------------| 
A|---------------------------------------------------------------------| 
E|---------------------------------------------------------------------| 

e|---------------------------------| 
b|-7---7---7---7---7---7-7--9--5---| 
G|---6---6---6---6---6------8--4---| 
D|---------------------------------| 
A|---------------------------------| 
E|---------------------------------| 

E B C#m A 

VELHO (BANDA VM's) 

		  

Full key step upFull key step up
Half key step upHalf key step up
Half key step downHalf key step down
Full key step downFull key step down
auto scroll beats size up size down change color hide chords simplify chords drawings columns
tab show chords e-chords YouTube Clip e-chords hide all tabs e-chords go to top tab

share