Meters

Trick Bag

Meters

chords Beginner beginner

by  ALYSLIMA

save to print version add songbook text version e-mail correct tuner
chordsukulelecavacokeyboardtabbassdrumsharmonicaflute Guitar Pro
close

there isn't a video lesson for this song

chords

Trick Bag

	  		

Intro                                             G Chord  
e|------------------------------------------------3---------------------------| 
B|------------------------------------3--5--6--5--3---------------------------| 
G|--/7--(0)-3-3-------3p0h3-3---------3--5--5--5--4---------------------------| 
D|----------------5-----------5-------------------5---------------------------| 
A|-------------5----------------------------------5---------------------------| 
E|------------------------------------------------3---------------------------| 

Main Riff 
e|---------------3----3--3-3-------------------------------------------------| 
B|---3--5--6--5--3----3--3-3-------------------------------------------------| 
G|---3--5--5--5--3h4--4--4-4-------------------------------------------------| 
D|---------------5----5--5-5-------------------------------------------------|  x 3 before lyrics 
A|---------------5----5--5-5-------------------------------------------------| 
E|---------------3----3--3-3-------------------------------------------------| 

   Twelve o'clock at night..... 
e|-3--------------3----3--3-3------------------------------------------------| 
B|-3--3--5--6--5--3----3--3-3------------------------------------------------| 
G|-4--3--5--5--5--3h4--4--4-4------------------------------------------------| 
D|-5--------------5----5--5-5------------------------------------------------|  x 8 
A|-5--------------5----5--5-5------------------------------------------------| 
E|-3--------------3----3--3-3------------------------------------------------| 

  The drug store closed....   C9 vamp.............. G  (I heard him telling I ain't got no sense) 
e|----------------------------3---------------------3-------------------------| 
B|----------------------------3---------------------3-------------------------| 
G|-------3-3--3p0-3p0---------3---------------------4-------------------------| 
D|---------------------5------2---------------------5-------------------------| 
A|--3-5-----------------------3---------------------5-------------------------| 
E|--------------------------------------------------3-------------------------| 

  The way you acting is such a drag 
     D9                     C9                Main Riff again..... 
e|---------------------------------------------------------------------------| 
B|----5---------------------3------------------------------------------------| 
G|----5---------------------3------------------------------------------------| 
D|----4---------------------2------------------------------------------------| 
A|----5---------------------3------------------------------------------------| 
E|---------------------------------------------------------------------------| 

The rest is basically repeat.... 


************************************ 
| /   slide up 
| h   hammer-on 
| p   pull-off 
| +   harmonic 
| b   Bend 
************************************ 
		  

Full key step upFull key step up
Half key step upHalf key step up
Half key step downHalf key step down
Full key step downFull key step down
auto scroll beats size up size down change color hide chords simplify chords drawings columns
tab show chords e-chords YouTube Clip e-chords hide all tabs e-chords go to top tab

share