Melody Gardot

Who Will Comfort Me

Melody Gardot

chords Expert expert

by  ABELAMIN

save to print version add songbook text version e-mail correct tuner
chordsukulelecavacokeyboardtabbassdrumsharmonicaflute Guitar Pro
close

there isn't a video lesson for this song

chords

Who Will Comfort Me

	  		

INTRO
 
e|-----x-----| 
B|-----x--3--| 
G|-----x--0--| 
D|-----x--3--| (4x)
A|-----x-----| 
E|--3--x-----| 

e|-----------------------------------------------------------------| 
B|----3-------3-------3-------3-----------3--------------3---------| 
G|----0---0---0---0---0---0---0---0---0---3--0---0---0---3--0---0--| (2x) 
D|------3-------3-------2-------2-------0-----0h3------0-----0h3---| 
A|-----------------------------------------------------------------| 
E|--3-------3-------3-------3-------3--------------3---------------| 

VERSE (2x) 

e|-------------------------------------------------------------------| 
B|----3-------3-------3-------3-------3-------3-------3-------3------| 
G|----0---0---0---0---0---0---0---0---0---0---0---0---0---0---0---0--|  
D|------3-------3-------2-------2-------1-------1-------0-------0----| 
A|-------------------------------------------------------------------| 
E|--3-------3-------3-------3-------3-------3-------3-------3--------| 

e|-----------------------------------------------------------------| 
B|----3-------3-------3-------3-----------3--------------3---------| 
G|----0---0---0---0---0---0---0---0---0---3--0---0---0---3--0---0--|  
D|------3-------3-------2-------2-------0-----0h3------0-----0h3---| 
A|-----------------------------------------------------------------| 
E|--3-------3-------3-------3-------3--------------3---------------| 

REFRÃO (2x) 

e|---------------------------------------------------------------| 
B|----1-------1-------1-----1-2---3-------3-------3-------3------| 
G|----0---0---0---0---0---0-0-----0---0---0---0---0---0---0---0--| 
D|------0-------0-------0-----------3-------3-------3-------3----| 
A|---------------------------------------------------------------| 
E|--1-------1-------1-------1-2-3-------3-------3-------3--------| 

VERSE 
REFRÃO 
SOLO-(guitar is same is in verse) 
VERSE 
OUTRO-(guitar is same is in verse) 

 
		  

auto scroll beats size up size down change color hide chords simplify chords drawings columns
tab show chords e-chords YouTube Clip e-chords hide all tabs e-chords go to top tab

share