Mc Livinho

Tudo De Bom

Mc Livinho

chords Intermediate intermediate

by  GUSTSILVA

save to print version add songbook text version e-mail correct tuner
chordsukulelecavacokeyboardtabbassdrumsharmonicaflute Guitar Pro
close

there isn't a video lesson for this song

chords

Tudo De Bom

	  		E|-----------------------------------------------------------4--2--0----------------------------------------------- 
B|-------5-5-5-5-4--2-2-----5-5-5-5-4--2-2-----5-5-5-5-4--2--------------------------------------------------------- 
G|----------------------------------------------------------------------------------------------------------------- 
D|----------------------------------------------------------------------------------------------------------------- 
A|----------------------------------------------------------------------------------------------------------------- 
E|----------------------------------------------------------------------------------------------------------------- 

E|-----------------------------------------------------------4--2--0----------------------------------------------- 
B|-------5-5-5-5-4--2-2-----5-5-5-5-4--2-2-----5-5-5-5-4--2-----------4-----5-5-5----5-5-5------------------------- 
G|----------------------------------------------------------------------------------------------------------------- 
D|-----------------------------------------------------------------------6---------6------------------------------- 
A|----------------------------------------------------------------------------------------------------------------- 
E|----------------------------------------------------------------------------------------------------------------- 

E|----------------------------------------------------------------------------------------------------------------- 
B|----------------------------------------------------------------------------------------------------------------- 
G|----------------------------------------------------------------------------------------------------------------- 
D|-------6-6-6-7-9-7-6-4-2----------------------------------------------------------------------------------------- 
A|--------------------------6-4------------------------------------------------------------------------------------ 
E|----------------------------------------------------------------------------------------------------------------- 



Esse solinho se repete a música inteira ;D 
           C#m 
Foi lá no baile, que ela dançou 
          A          G# 
E como sempre todo mundo olhou 
           C#m 
Foi lá no baile, que aconteceu 
      A          G# 
Ela parou e me chamou, chamou, chamou eu 
Haha 

Ôh novinha, ôh novinha 
              C#m      A    G# 
Cê é tudo de bom om om om om 
      C#m 
Tua boquinha, tua boquinha 
                A        G# 
Me marcou com batom om om om om 
C#m                    C#m 
Dá uma lapada no chão, da uma lapada no chão 
                  A     G# 
Dá uma lapada no chão, ahm ahm ahm ahm ahm (2x) 

C#m 
Livinho que vai mandar, e é pra tu obedecer 
A                   G# 
bota a mãozinha no chão e começa a remexer (2x) 

Ôh novinha, ôh novinha 
             C#m      A  G# 
Cê é tudo de bom om om om om 
C#m 
Tua boquinha, tua boquinha 
                A       G# 
Me marcou com batom om om om om. 
		  

Full key step upFull key step up
Half key step upHalf key step up
Half key step downHalf key step down
Full key step downFull key step down
auto scroll beats size up size down change color hide chords simplify chords drawings columns
tab show chords e-chords YouTube Clip e-chords hide all tabs e-chords go to top tab

share