Maskavo

Mais Linda

Maskavo

chords Intermediate intermediate

save to print version add songbook text version e-mail correct tuner
chordsukulelecavacokeyboardtabbassdrumsharmonicaflute Guitar Pro
close

there isn't a video lesson for this song

chords

Mais Linda

	  		 
INT.: ( G  D   C ) 2 VEZES  
 
G               D 
Eu quero ver você 
               C 
Cada vez mais linda 
 
Minha menina 
G 
Minha vida 
G                D 
Venha ao adormecer 
             C 
Me trazer notícias 
Minha menina 
G          B7/9 
Minha vida 
E                        A 
Nem tão perto quanto eu gostaria 
E       A              E          A  
Nem tão longe quanto a vida me queria 
C#m           F#m 
Fonte das canções 
A 
Pra pensar em você 
       B 
Tenho todas as razões 
SOLO: 
 
   G             D             C                     G        
e|-3--5/7--5--3--5--5/7--5--3--0---10/12--10----------------------------------------- 
B|--------------------------------------------13--12/1312---8----------------------- 
G|--------------------------------------------------------------7-------7------------ 
D|-----------------------------------------------------------------7/9-----9--5--7--9 
 
             D                   C                G                      B7/9 
e|------------------------------------12--10-------------------------------------- 
B|----------------10^--8--10^--8--------------13--12------------------------------ 
G|--7--9-----7-------------------9-------------------12--------------------------- 
D|--------9---------------------------------------------12---9---7----5---4------- 
 
 
 
G               D 
Eu quero ver você 
               C 
Cada vez mais linda 
 
Minha menina 
       G 
Minha vida 
G               D 
Venha ao adormecer 
             C 
Me trazer notícias 
Minha menina 
    G     B7/9 
Minha vida 
    
 
_______________________________________________________ 
CONTRIBUIÇÃO: TIAGO(((((ROADIES 100% ROCK )))) EM BREVE CD!!!! 
		  

Full key step upFull key step up
Half key step upHalf key step up
Half key step downHalf key step down
Full key step downFull key step down
hide glossary

See also:

chords Planta e Raiz - A Planta que brota da terra chords Armandinho & Banda - Analua chords Natiruts - Me Namora chords Armandinho & Banda - Outra Noite Que se Vai (ver. 2) chords Armandinho - Ursinho de dormir - (Acustico) chords Armandinho & Banda - Semente
e-chords

Other versions:

chords Maskavo - Mais Linda
auto scroll beats size up size down change color hide chords simplify chords drawings columns
tab show chords e-chords YouTube Clip e-chords hide all tabs e-chords go to top tab

share