Lyle Workman

Fortunate Son

Lyle Workman

chords Expert expert

by  ALEFFEDERICO

save to print version add songbook text version e-mail correct tuner
chordsukulelecavacokeyboardtabbassdrumsharmonicaflute Guitar Pro
close

there isn't a video lesson for this song

chords

Fortunate Son

	  		


Guitar 1:
 
    G     F     C     G 
e|--3-----1-----0-----3-------------------------------| 
B|--3-----1-----1-----3-------------------------------| 
G|--0-----2-----0-----0-------------------------------| 
D|--0-----3-----2-----0-------------------------------| 
A|--2-----3-----3-----2-------------------------------| 
E|--3-----1-----x-----3-------------------------------| 


Guitar 2: 

e|-------------------------------------------------| 
B|-----8-------6-------5--------3------------------| 
G|-------------------------------------------------| (2x) 
D|-7/9-----5/7-----3/5-----5/3---------------------| 
A|-------------------------------------------------| 
E|-------------------------------------------------| 


e|-------------------------------------------------| 
B|-----8--------6-------5------1-------------------| 
G|-------------------------------------------------| 
D|-7/9------5/7-----3/5----5/3---------------------| (2x) 
A|-----------------------------------1-------------| 
E|--------------------------------------3----------| 

e|----------------------------------------------------| 
B|-8-8-8?8h10---8\6?6/8---10/11-8?6-6/8-6/8-6h8-------| 
G|----------------------------------------------------| 
D|----------------------------------------------------| 
A|----------------------------------------------------| 
E|----------------------------------------------------| 


e|----------------------------------------------------| 
B|-8-8-8-8h10---8\6-6/8---10/11-8-6--6/8-6/8-6h8-6----| 
G|-------------------------------------------------5-3| 
D|----------------------------------------------------| 
A|----------------------------------------------------| 
E|----------------------------------------------------| 


e|----------------------------------------------------| 
B|-8-8-8---10-10-10p8?10/11-8-6--6/8-6/8-6h8----------| 
G|----------------------------------------------------| 
D|----------------------------------------------------| 
A|----------------------------------------------------| 
E|----------------------------------------------------| 


e|----------------------------------------------------| 
B|-8-8-8---10-10-10p8?10/11-8-6--6/8-6/8-6h8---6------| 
G|----------------------------------------------5-3---| 
D|----------------------------------------------------| 
A|----------------------------------------------------| 
E|----------------------------------------------------| 

 
		  

Full key step upFull key step up
Half key step upHalf key step up
Half key step downHalf key step down
Full key step downFull key step down
hide glossary

See also:

chords The Doors - Light my fire chords America - Horse With No Name chords Whitney Houston - I will always love you chords Foo Fighters - Times Like These chords Simon & Garfunkel - The sounds of silence chords The Doors - Riders On The Storm
e-chords

Other versions:

chords Creedence Clearwater Revival - Fortunate Son chords John Fogerty - Fortunate Son chords Lyle Workman - Fortunate Son
auto scroll beats size up size down change color hide chords simplify chords drawings columns
tab show chords e-chords YouTube Clip e-chords hide all tabs e-chords go to top tab

share with facebook