King Gizzard & The Lizard Wizard

Altered Beast Ii Chords

King Gizzard & The Lizard Wizard

Difficulty: nolevelnolevel

by victborges

tuner correct add songbook print version text version save to e-mail
chordsukuleleukulelecavacokeyboardtabbassdrumsharmonicsflute Guitar Pro
close

there isn't a video lesson for this song

request
chords

Altered Beast Ii

  		
Spoken Word 1 
e|---------------------------------------------------------------------------| 
B|---------------------------------------------------------------------------| 
G|-----------------------------2-0-------------------------------------------| 
D|-2-0-2-0-2-0-3---2-0-2-0-2-0-----3-2---------------------------------------| x14 (Palm muted) 
A|---------------------------------------------------------------------------|  
E|---------------------------------------------------------------------------| 

Verse 
"I see you I want to Break your head Crusty bread" 
e|---------------------------------------------------------------------------| 
B|---------------------------------------------------------------------------| 
G|---------------------------------------------------------------------------| 
D|-2-0-2-0-2-0-3-2---2-0-2-0-2-0-3-2-----------------------------------------| x4 (Palm muted) 
A|---------------------------------------------------------------------------| 
E|---------------------------------------------------------------------------| 

"Oh!" 
e|---------------------------------------------------------------------------| 
B|---------------------------------------------------------------------------| 
G|---------------------------------------------------------------------------| 
D|-9-7-9-7-9-7-10---9-7-9-7-9-7-7--------------------------------------------| x4  
A|---------------------------------------------------------------------------| 
E|---------------------------------------------------------------------------| 

"I won't quit If you quip See to it That you slip" 
e|---------------------------------------------------------------------------| 
B|---------------------------------------------------------------------------| 
G|---------------------------------------------------------------------------| 
D|-2-0-2-0-2-0-3-2---2-0-2-0-2-0-3-2-----------------------------------------| x4 (Palm muted) 
A|---------------------------------------------------------------------------| 
E|---------------------------------------------------------------------------| 

"Oh!" 
e|---------------------------------------------------------------------------| 
B|---------------------------------------------------------------------------| 
G|---------------------------------------------------------------------------| 
D|-9-7-9-7-9-7-10---9-7-9-7-9-7-7--------------------------------------------| x4 
A|---------------------------------------------------------------------------| 
E|---------------------------------------------------------------------------| 

"I see you I want to Seize your brain"  
e|---------------------------------------------------------------------------| 
B|---------------------------------------------------------------------------| 
G|---------------------------------------------------------------------------| 
D|---------------------------------------------------------------------------| 
A|-2-0-2-0-2-0-3---2-0-2-0-2-0-5---------------------------------------------| x3 (Palm muted) 
E|---------------------------------------------------------------------------| 

"I'd like to put it in my head" 
e|---------------------------------------------------------------------------| 
B|---------------------------------------------------------------------------| 
G|-----------------4---------------------------------------------------------| 
D|-----------------4---7-----------------------------------------------------| (Palm muted notes) 
A|-2-0-2-0-2-0-3---2---7-----------------------------------------------------| (Don't mute chords) 
E|---------------------5-----------------------------------------------------| 

Spoken Word 2 
e|---------------------------------------------------------------------------| 
B|---------------------------------------------------------------------------| 
G|-------------------12-14-14b-14b-12-14-------------------------------------| 
D|-12-14-14-14-12-14---------------------------------------------------------| x4 
A|---------------------------------------------------------------------------| 
E|---------------------------------------------------------------------------| 

e|---------------------------------------------------------------------------| 
B|---------------------------------------------------------------------------| 
G|-4-4-4-6---4--6------------------------------------------------------------| 
D|-5-5-5-7---5--7------------------------------------------------------------| x4 
A|-5-5-5-7---5--7------------------------------------------------------------| 
E|-3-3-3-5---3--5------------------------------------------------------------| 

"Tell me would you honestly Dare to face up next to me  
Sugar coated pills won't keep You from feeling so woozy" 
e|---------------------------------------------------------------------------| 
B|---------------------------------------------------------------------------| 
G|-19-18----------18------19-18-------18-------------------------------------| 
D|-------19-21-19---------------19-21----19----------------------------------| x2 
A|---------------------------------------------------------------------------| 
E|---------------------------------------------------------------------------| 

"I am an altered beast" 
e|---------------------------------------------------------------------------| 
B|---------------------------------------------------------------------------| 
G|-2-2-2-2-2-2-2-2---1---7---------------------------------------------------| 
D|-3-3-3-3-3-3-3-3---2---8---------------------------------------------------|  
A|-3-3-3-3-3-3-3-3---2---8---------------------------------------------------| 
E|-1-1-1-1-1-1-1-1---0---6---------------------------------------------------| 

"Oh!" 
e|---------------------------------------------------------------------------| 
B|---------------------------------------------------------------------------| 
G|-/9~-/12~-/19~-/21~--------------------------------------------------------| Play each note 8 times 
D|---------------------------------------------------------------------------| 
A|---------------------------------------------------------------------------| 
E|---------------------------------------------------------------------------| 

Spoken Word 3 
e|---------------------------------------------------------------------------| 
B|---------------------------------------------------------------------------| 
G|-----------------------------2-0-------------------------------------------| 
D|-2-0-2-0-2-0-3---2-0-2-0-2-0-----3-2---------------------------------------| x5 (Palm muted) 
A|---------------------------------------------------------------------------|  
E|---------------------------------------------------------------------------| 

"I see you I want to Make a waste Of your home" 
e|---------------------------------------------------------------------------| 
B|---------------------------------------------------------------------------| 
G|---------------------------------------------------------------------------| 
D|-2-0-2-0-2-0-3-2---2-0-2-0-2-0-3-2-----------------------------------------| x4 (Palm muted) 
A|---------------------------------------------------------------------------| 
E|---------------------------------------------------------------------------| 

"Oh!" 
e|---------------------------------------------------------------------------| 
B|---------------------------------------------------------------------------| 
G|---------------------------------------------------------------------------| 
D|-9-7-9-7-9-7-10---9-7-9-7-9-7-7--------------------------------------------| x4  
A|---------------------------------------------------------------------------| 
E|---------------------------------------------------------------------------| 

"I won't leave I might tease I'll be there Await your death" 
e|---------------------------------------------------------------------------| 
B|---------------------------------------------------------------------------| 
G|---------------------------------------------------------------------------| 
D|-2-0-2-0-2-0-3-2---2-0-2-0-2-0-3-2-----------------------------------------| x4 (Palm muted) 
A|---------------------------------------------------------------------------| 
E|---------------------------------------------------------------------------| 

"Oh!" 
e|---------------------------------------------------------------------------| 
B|---------------------------------------------------------------------------| 
G|---------------------------------------------------------------------------| 
D|-9-7-9-7-9-7-10---9-7-9-7-9-7-7--------------------------------------------| x4  
A|---------------------------------------------------------------------------| 
E|---------------------------------------------------------------------------| 

"I see you I want to Seize your brain"  
e|---------------------------------------------------------------------------| 
B|---------------------------------------------------------------------------| 
G|---------------------------------------------------------------------------| 
D|---------------------------------------------------------------------------| 
A|-2-0-2-0-2-0-3---2-0-2-0-2-0-5---------------------------------------------| x3 (Palm muted) 
E|---------------------------------------------------------------------------| 

"I'd like to put it in my head" 
e|---------------------------------------------------------------------------| 
B|---------------------------------------------------------------------------| 
G|-----------------4---------------------------------------------------------| 
D|-----------------4---7-----------------------------------------------------| (Palm muted notes) 
A|-2-0-2-0-2-0-3---2---7-----------------------------------------------------| (Don't mute chords) 
E|---------------------5-----------------------------------------------------| 

Spoken Word 4 
e|---------------------------------------------------------------------------| 
B|---------------------------------------------------------------------------| 
G|-------------------0-2-2b-2b-0-2-------------------------------------------| 
D|-0-2-2-2-0-2---------------------------------------------------------------| x2 
A|---------------------------------------------------------------------------| 
E|---------------------------------------------------------------------------| 

e|---------------------------------------------------------------------------| 
B|---------------------------------------------------------------------------| 
G|-------------------12-14-14b-14b-12-14-------------------------------------| 
D|-12-14-14-14-12-14---------------------------------------------------------| x2 
A|---------------------------------------------------------------------------| 
E|---------------------------------------------------------------------------| 

e|---------------------------------------------------------------------------| 
B|---------------------------------------------------------------------------| 
G|-4-4-4-6---4--6------------------------------------------------------------| 
D|-5-5-5-7---5--7------------------------------------------------------------| x4 
A|-5-5-5-7---5--7------------------------------------------------------------| 
E|-3-3-3-5---3--5------------------------------------------------------------| 

"Tell me would you honestly Dare to face up next to me  
Sugar coated pills won't keep You from feeling so woozy" 
e|---------------------------------------------------------------------------| 
B|---------------------------------------------------------------------------| 
G|-19-18----------18------19-18-------18-------------------------------------| 
D|-------19-21-19---------------19-21----19----------------------------------| x2 
A|---------------------------------------------------------------------------| 
E|---------------------------------------------------------------------------| 

"Tell me would you honestly Dare to face up next to me" 
e|---------------------------------------------------------------------------| 
B|---------------------------------------------------------------------------| 
G|-17-16----------16------17-16-------16-------------------------------------| 
D|-------17-19-17---------------17-19----17----------------------------------| 
A|---------------------------------------------------------------------------| 
E|---------------------------------------------------------------------------| 

"Sugar coated pills won't keep You from feeling so woozy" 
e|---------------------------------------------------------------------------| 
B|---------------------------------------------------------------------------| 
G|-15-14----------14------15-14-------14-------------------------------------| 
D|-------15-17-15---------------15-17----15----------------------------------| 
A|---------------------------------------------------------------------------| 
E|---------------------------------------------------------------------------| 

"I am an altered beast" 
e|---------------------------------------------------------------------------| 
B|---------------------------------------------------------------------------| 
G|-2-2-2-2-2-2-2-2---1---7---6-----------------------------------------------| 
D|-3-3-3-3-3-3-3-3---2---8---7-----------------------------------------------|  
A|-3-3-3-3-3-3-3-3---2---8---7-----------------------------------------------| 
E|-1-1-1-1-1-1-1-1---0---6---5-----------------------------------------------| 

"Oh!" 
e|---------------------------------------------------------------------------| 
B|---------------------------------------------------------------------------| 
G|---------------------------------------------------------------------------| 
D|-9-7-9-7-9-7-10---9-7-9-7-9-7-7--------------------------------------------| x2 
A|---------------------------------------------------------------------------| 
E|---------------------------------------------------------------------------| 



************************************ 

| b  Bend 
| /  Slide up 
| ~  Vibrato 

************************************ 
	  

Search Paypal
auto scroll beats size up size down change color hide chords simplify chords drawings columns
tab show chords e-chords YouTube Clip e-chords hide all tabs e-chords go to top tab

share with facebook