Igor Presnyakov

Pirates Of The Caribbean

Igor Presnyakov

chords

by  TARIKIKE

save to print version add songbook text version e-mail correct tuner
chordsukulelecavacokeyboardtabbassdrumsharmonicaflute Guitar Pro
close

there isn't a video lesson for this song

chords

Pirates Of The Caribbean

	  		
Tuning CGCFAD 

Intro: 

D|----------------------------------------------------------------------------------| 
A|----------------------------------------------------------------------------------| 
F|----------------------------------------------------------------------------------| 
C|-0-----00000--00000-00000--00000-00000-00000-00000--------------------------------| 
G|-0--------------------------------------------------------------------------------| 
C|-0----------------0------------0-------------0---0--------------------------------| 

Hook: 

D|-----------------0--1--1--1h3--0--0-------------------------------0--1--1---1h3---| 
A|-----1-3--3---3-----------------------1---1h3---------1--3--3---3-----------------| 
F|---2------------------------------------2-----------2-----------------------------| 
C|----------------------------------------------------------------------------------| 
G|-------------------------------3--3----------------------1--1---------------------| 
C|-0-----0--0---------3--3------------------0-------0------------------3--3---------| 

D|-0--0--------------------------0--3--3--3p1--6--6--5p3-5---------1-1--3--5--------| 
A|-------1---1h3-------1-3--3--3---------------------------3-3h5---3-3--------3-----| 
F|---------2---------2--------------------------------------------------------------| 
C|----------------------------------------------------------------------------------| 
G|-3--3-----------------------------1--1---------------------------1-1--------------| 
C|-----------0-----0-----0--0------------------5--5------0-----------------0--------| 

D|-----1-0--1p0-0-------------------------------------------------------------------| 
A|---3------------------------------------------------------------------------------| 
F|----------------------------------------------------------------------------------| 
C|----------------------------------------------------------------------------------| 
G|-0-----0------0-------------------------------------------------------------------| 
C|----------------------------------------------------------------------------------| 

D|-----------------0--1--1--1h3--0--0-------------------------------0--1--1---1h3---| 
A|-----1-3--3---3-----------------------1---1h3---------1--3--3---3-----------------| 
F|---2------------------------------------2-----------2-----------------------------| 
C|----------------------------------------------------------------------------------| 
D|-------------------------------3--3----------------------1--1---------------------| 
C|-0-----0--0---------3--3------------------0-------0------------------3--3---------| 

D|-0--0--------------------------0--3--3--3p1--6--6--5p3-5---------1-1--3--5--------| 
A|-------1---1h3-------1-3--3--3---------------------------3-3h5---3-3--------3-----| 
F|---------2---------2--------------------------------------------------------------| 
C|----------------------------------------------------------------------------------| 
G|-3--3-----------------------------1--1---------------------------1-1--------------| 
C|-----------0-----0-----0--0------------------5--5------0-----------------0--------| 

D|-----1-0--0------------1-1---3---5------1--------666-6----------------------------| 
A|---3---------3--3------3-3---5---5-------3-------666--6-----22--33--6-------------| 
F|---------------------------------6--------2------------3----22--33--6-------------| 
C|----------------0-0---------------------------------------------------------------| 
G|-0-----0--0---------3--1-1---3---0---000---0-----000----0---00--00--0-------------| 
C|----------------------------------------------------------------------------------| 

D|---5-5-5-6 5------3-3-3-3-5------5-5-5-6-5----------------------0---1---1--3/5----| 
A|---6-6-6-8-6------5-5-5-5-6------6-6-6-8-6-----8--6--5--3----3------3-------------| 
F|-----------------------------------------------9--7--5--2-----------2-------------| 
C|----------------------------------------------------------------------------------| 
G|----------------3---3-3-3-3-------------------0---------------------1-------------| 
C|-0---0-0-0-0-------------------0---0-0-0-0--------------0-------------------------| 

D|--3--1-0--1--3-3/5--3--1--3/5--5--3-1h3p1-0--1--3--0----3----0---1--0--1--3-------| 
A|---------------------------------------------1--2----1--2--3-----3----------------| 
F|-----------------------------------------------------------------5----------------| 
C|----------------------------------------------------------------------------------| 
G|--3-----------------3---------------------0----------------------1--------3-------| 
C|----------3--------------------3----------------0-------0-------------------------| 

D|-1--3/5--5--3--1h3p1p0-------0-1--3--5--6--------1-3-1---0------------------------| 
A|------------------------3--3---3--5--6-----3-3---3-----3---1----------------------| 
F|-------------------------------------------3-3------------------------------------| 
C|----------------------------------------------------------------------------------| 
G|------------------------1------1-----------------0-----0--------------------------| 
C|---------3------------------------------5-----------------------------------------| 

D|-5-----6----5-5-5-5-3-----3-------1-----0-1-0-------0-----------------------------| 
A|-6-----8----6-6-6-6-5-----3-------3-----3-3-3--3---3------------------------------| 
F|-----------------------------------------------2--2-------------------------------| 
C|---0-0----------------------------------------------------------------------------| 
G|------------3-3---3-3---------------0-0---0-0-------------------------------------| 
C|-0-----0------------------5\0----0-------------0----------------------------------| 
                              ****** X2^ ****** 
D|-5-----6----5-5-5/-----------3-------1----0-1-0-------0---------------------------| 
A|-6-----8----6-6-6/---10-8----3-------3----3-3-3--3---3----------------------------| 
F|---------------------10--------------------------2--2-----------------------------| 
C|---0-0----------------------------------------------------------------------------| 
G|------------3-3------------------------00---0-0-----------------------------------| 
C|-0-----0-------------10------5\0----0------------0--------------------------------| 
                           ****** X2^ ****** 
Outro: 

D|----------------------------------------------------------------------------------| 
A|----------------------------------------------------------------------------------| 
F|----------------------------------------------------------------------------------| 
C|-0-00000-00000-00000-00007xxxx8xxxx7-7-7-7\5-5-5-5xxx3-3xxx2-3-2-0----------------| 
G|-0-00000-00000-00000-00007xxxx8xxxx7-7-7-7\5-5-5-5xxx3-3xxx2-3-2-0----------------| 
C|-0-00000-00000-00000-00007xxxx8xxxx7-7-7-7\5-5-5-5xxx3-3xxx2-3-2-0----------------| 

 ^^^^^^^Epic tapping and stuff I don't know how to do throughout hole song^^^^^^^^^^^^^ 

************************************ 

| /   slide up 
| \   slide down 
| h   hammer-on 
| p   pull-off 
| ~   vibrato 
| +   harmonic 
| x   Mute note 
| b   Bend 
| pb  Pre-bend 
| br  Bend release 
| pbr Pre-bend release 
| brb Bend release bend 

************************************ 
		  

auto scroll beats size up size down change color hide chords simplify chords drawings columns
tab show chords e-chords YouTube Clip e-chords hide all tabs e-chords go to top tab

share