Her Bright Skies

Rivals

Her Bright Skies

chords Advanced advanced

by  PAULLET3

save to print version add songbook text version e-mail correct tuner
chordsukulelecavacokeyboardtabbassdrumsharmonicaflute Guitar Pro
close

there isn't a video lesson for this song

chords

Rivals

Key:  B More
Rivals Key F#F#
Rivals Key GG
Rivals Key G#G#
Rivals Key AA(one step down)
Rivals Key A#A#(half step down)
Rivals Key BB(original key)
Rivals Key CC(half step up)
Rivals Key C#C#(one step up)
Rivals Key DD
Rivals Key D#D#
Rivals Key EE
Rivals Key FF
	  		

Tuning: Drop B  B Gb B E Ab Db  
    
Palm Mute          = * 
Stress Note/Accent = > 
Slide Down         = \ 
Slide up           = / 
Hammer On          = h 
Pull Off           = p 

Lead Guitar (Guitar I) - Nikki 
Rhythm Guitar (Guitar II) - Pete 

Effects: Guitar I   - Overdrive (with lots of gain) 
         Guitar II  - Overdrive 
                    - Delay (verse only) 

Intro I (Piano)... 

Intro II 

 Guitar II 
|-------------------------------------------------| 
|-------------------------------------------------| 
|-------------------------------------------------| 
|-4-4-4-4-4-4-4-2-2-2-2-2-2-2-0-0-0-0-0-0-0-0-0-0-| 
|-4-4-4-4-4-4-4-2-2-2-2-2-2-2-0-0-0-0-0-0-0-0-0-0-| 
|-4-4-4-4-4-4-4-2-2-2-2-2-2-2-0-0-0-0-0-0-0-0-0-0-| x4 (there are slight variations in the rhythm)  

Guitar I 
|-12-------12-------12----14-------14-------14----| 
|----10-------10-------------10-------10----------| 
|-------11-------11----11-------11-------11----11-| 
|-------------------------------------------------| 
|-------------------------------------------------| 
|-------------------------------------------------| x4 


Verse I 

Guitar II 
|-5~--------5~-|      |----------------| 
|-7~--------7~-|      |-10~--------10~-| 
|-6~--------6~-|  OR  |-11~--------11~-| Play with Delay 
|--------------|      |-11~--------11~-| 
|--------------|      |----------------| 
|--------------|      |----------------|  

Guitar I 
|-12-------12--------| 
|----10-------10-----| 
|-------11-------11--| 
|--------------------|  
|--------------------| 
|--------------------| 

Chorus I 

Guitar II 
|---------------------------------------------------------------------------------| 
|---------------------------------------------------------------------------------| 
|---------------------------------------------------------------------------------| 
|-0-0-0-0-0-0-0-0-2-2-2-2-2-2-2-2-4-4-4-4-4-4-4-2-2-2-2-2-2-2-2-2-0-0-0-0-0-0-0-0-| 
|-0-0-0-0-0-0-0-0-2-2-2-2-2-2-2-2-4-4-4-4-4-4-4-2-2-2-2-2-2-2-2-2-0-0-0-0-0-0-0-0-| 
|-0-0-0-0-0-0-0-0-2-2-2-2-2-2-2-2-4-4-4-4-4-4-4-2-2-2-2-2-2-2-2-2-0-0-0-0-0-0-0-0-| 

|-------------------------------------------------------------------------------------------------| 
|-------------------------------------------------------------------------------------------------| 
|---------------------------------2-2-2-2-2-2-2---------------------------------------------------| 
|-0-0-0-0-0-0-0-0-2-2-2-2-2-2-2-2-2-2-2-2-2-2-2-2-2-2-2-2-2-2-2-2-0-0-0-0-0-0-0-0-2-2-2-2-2-2-2-2-| 
|-0-0-0-0-0-0-0-0-2-2-2-2-2-2-2-2-0-0-0-0-0-0-0-2-2-2-2-2-2-2-2-2-0-0-0-0-0-0-0-0-2-2-2-2-2-2-2-2-| 
|-0-0-0-0-0-0-0-0-2-2-2-2-2-2-2-2---------------2-2-2-2-2-2-2-2-2-0-0-0-0-0-0-0-0-2-2-2-2-2-2-2-2-| 

Gutar I 
|-12-------12-------12----12-------12-------12----12-------12-------12----14-------14-------14----| 
|----10-------10-------------10-------10-------------10-------10-------------10-------10----------| 
|-------11-------11----11-------11-------11----11-------11-------11----11-------11-------11----11-| 
|-------------------------------------------------------------------------------------------------| 
|-------------------------------------------------------------------------------------------------| 
|-------------------------------------------------------------------------------------------------| x2 

|-12-------12-------12----| 
|----10-------10----------| 
|-------11-------11----11-| 
|-------------------------| 
|-------------------------| 
|-------------------------| 

Verse II 

Guitar I 
|-9--9--9--9--9--7--7--7--10-10-10-10-10-10-10-10-| --| 
|-10-10-10-10-10-10-10-10-10-10-10-10-10-10-10-10-|   | 
|-------------------------------------------------|   |  
|-------------------------------------------------|   | 
|-------------------------------------------------|   | 
|-------------------------------------------------|   | 
                                                      |--  x2 
|-9--9--9--7--7--7--7--7--10-10-10-10-10-10-10-10-|   | 
|-10-10-10-10-10-10-10-10-10-10-10-10-10-10-10-10-|   | 
|-------------------------------------------------|   | 
|-------------------------------------------------|   | 
|-------------------------------------------------|   | 
|-------------------------------------------------| --| 

Guitar II 
|-12---------|            |-12~----16b17~-| 
|----10-9h10-|            |---------------| 
|------------|            |---------------| 
|------------|            |---------------| 
|------------|            |---------------| 
|------------| x8 then... |---------------| 

Chours  

Guitar II 
|---------------------------------------------------------------------------------| 
|---------------------------------------------------------------------------------| 
|---------------------------------------------------------------------------------| 
|-0-0-0-0-0-0-0-0-2-2-2-2-2-2-2-2-4-4-4-4-4-4-4-2-2-2-2-2-2-2-2-2-0-0-0-0-0-0-0-0-| 
|-0-0-0-0-0-0-0-0-2-2-2-2-2-2-2-2-4-4-4-4-4-4-4-2-2-2-2-2-2-2-2-2-0-0-0-0-0-0-0-0-| 
|-0-0-0-0-0-0-0-0-2-2-2-2-2-2-2-2-4-4-4-4-4-4-4-2-2-2-2-2-2-2-2-2-0-0-0-0-0-0-0-0-| 

|-------------------------------------------------------------------------------------------------| 
|-------------------------------------------------------------------------------------------------| 
|---------------------------------2-2-2-2-2-2-2---------------------------------------------------| 
|-0-0-0-0-0-0-0-0-2-2-2-2-2-2-2-2-2-2-2-2-2-2-2-2-2-2-2-2-2-2-2-2-0-0-0-0-0-0-0-0-2-2-2-2-2-2-2-2-| 
|-0-0-0-0-0-0-0-0-2-2-2-2-2-2-2-2-0-0-0-0-0-0-0-2-2-2-2-2-2-2-2-2-0-0-0-0-0-0-0-0-2-2-2-2-2-2-2-2-| 
|-0-0-0-0-0-0-0-0-2-2-2-2-2-2-2-2---------------2-2-2-2-2-2-2-2-2-0-0-0-0-0-0-0-0-2-2-2-2-2-2-2-2-| 

Gutar I 
|-12-------12-------12----12-------12-------12----12-------12-------12----14-------14-------14----| 
|----10-------10-------------10-------10-------------10-------10-------------10-------10----------| 
|-------11-------11----11-------11-------11----11-------11-------11----11-------11-------11----11-| 
|-------------------------------------------------------------------------------------------------| 
|-------------------------------------------------------------------------------------------------| 
|-------------------------------------------------------------------------------------------------| x2 

|-12-------12-------12----| 
|----10-------10----------| 
|-------11-------11----11-| 
|-------------------------| 
|-------------------------| 
|-------------------------| 

Bridge 

Guitar II 
|-----------------------------------------------------------------| 
|-----------------------------------------------------------------| 
|-----------------------------------------------------------------| 
|-0-0-0-0-0-0-0-0-2-2-2-2-2-2-2-2-4-4-4-4-4-4-4-4-2-2-2-2-2-2-2-2-| 
|-0-0-0-0-0-0-0-0-2-2-2-2-2-2-2-2-4-4-4-4-4-4-4-4-2-2-2-2-2-2-2-2-| 
|-0-0-0-0-0-0-0-0-2-2-2-2-2-2-2-2-4-4-4-4-4-4-4-4-2-2-2-2-2-2-2-2-| x2 

Guitar I 
|------12------12------------12------12------| 
|-9h10----9h10----9h10--9h10 ---9h10----9h10-| 
|--------------------------------------------| 
|--------------------------------------------| 
|--------------------------------------------| 
|--------------------------------------------| x4 

Final Chorus 

Guitar II 
|-------|      |-------| 
|-------|      |-------| 
|-2-4---|      |-------| 
|-2-4-4-|  OR  |-7-9-4-| 
|-0-2-4-|      |-7-9-4-| 
|-----4-|      |-7-9-4-| 

|---------------------------------------------------------------------------------| 
|---------------------------------------------------------------------------------| 
|---------------------------------------------------------------------------------| 
|-0-0-0-0-0-0-0-0-2-2-2-2-2-2-2-2-4-4-4-4-4-4-4-2-2-2-2-2-2-2-2-2-0-0-0-0-0-0-0-0-| 
|-0-0-0-0-0-0-0-0-2-2-2-2-2-2-2-2-4-4-4-4-4-4-4-2-2-2-2-2-2-2-2-2-0-0-0-0-0-0-0-0-| 
|-0-0-0-0-0-0-0-0-2-2-2-2-2-2-2-2-4-4-4-4-4-4-4-2-2-2-2-2-2-2-2-2-0-0-0-0-0-0-0-0-| 

|-------------------------------------------------------------------------------------------------| 
|-------------------------------------------------------------------------------------------------| 
|---------------------------------2-2-2-2-2-2-2---------------------------------------------------| 
|-0-0-0-0-0-0-0-0-2-2-2-2-2-2-2-2-2-2-2-2-2-2-2-2-2-2-2-2-2-2-2-2-0-0-0-0-0-0-0-0-2-2-2-2-2-2-2-2-| 
|-0-0-0-0-0-0-0-0-2-2-2-2-2-2-2-2-0-0-0-0-0-0-0-2-2-2-2-2-2-2-2-2-0-0-0-0-0-0-0-0-2-2-2-2-2-2-2-2-| 
|-0-0-0-0-0-0-0-0-2-2-2-2-2-2-2-2---------------2-2-2-2-2-2-2-2-2-0-0-0-0-0-0-0-0-2-2-2-2-2-2-2-2-| 

Gutar I 
|-12-------12-------12----12-------12-------12----12-------12-------12----14-------14-------14----| 
|----10-------10-------------10-------10-------------10-------10-------------10-------10----------| 
|-------11-------11----11-------11-------11----11-------11-------11----11-------11-------11----11-| 
|-------------------------------------------------------------------------------------------------| 
|-------------------------------------------------------------------------------------------------| 
|-------------------------------------------------------------------------------------------------| x2 

|-12-------12-------12----| 
|----10-------10----------| 
|-------11-------11----11-| 
|-------------------------| 
|-------------------------| 
|-------------------------| 

Outro 

 Guitar II 
|-------------------------------------------------| 
|-------------------------------------------------| 
|-------------------------------------------------| 
|-4-4-4-4-4-4-4-2-2-2-2-2-2-2-0-0-0-0-0-0-0-0-0-0-| 
|-4-4-4-4-4-4-4-2-2-2-2-2-2-2-0-0-0-0-0-0-0-0-0-0-| 
|-4-4-4-4-4-4-4-2-2-2-2-2-2-2-0-0-0-0-0-0-0-0-0-0-| x4 

Guitar I 
|-12-------12-------12----14-------14-------14----| 
|----10-------10-------------10-------10----------| 
|-------11-------11----11-------11-------11----11-| 
|-------------------------------------------------| 
|-------------------------------------------------| 
|-------------------------------------------------| x4 

Guitar II (End On...) 
|-----------------| 
|-----------------| 
|-----------------| 
|-2-2-2-2-2-2-2-2-| 
|-2-2-2-2-2-2-2-2-| 
|-2-2-2-2-2-2-2-2-| 

Guitar I (End On...) 
|-12-------12-------12----| 
|----10-------10----------| 
|-------11-------11----11-| 
|-------------------------| 
|-------------------------| 
|-------------------------| 

Enjoy and please rate! 
C.Bones 
		  

Full key step upFull key step up
Half key step upHalf key step up
Half key step downHalf key step down
Full key step downFull key step down
hide glossary

See also:

chords Bjorn Afzelius - Sang Till Friheten chords Takida - Swallow (until You're Gone) chords Opeth - Harvest chords Sabaton - Resist And Bite chords Sabaton - A Ghost In The Trenches chords Sabaton - Night Witches
e-chords

Other versions:

chords Her Bright Skies - Rivals chords Kensington - Rivals
auto scroll beats size up size down change color hide chords simplify chords drawings columns
tab show chords e-chords YouTube Clip e-chords hide all tabs e-chords go to top tab

share