Green Day

Don't Wanna Fall In Love Chords

Green Day

Difficulty: IntermediateIntermediate

tuner correct add songbook print version text version save to e-mail
chordsukuleleukulelecavacokeyboardtabbassdrummharmonicsflute Guitar Pro
close

there isn't a video lesson for this song

chords

Don't Wanna Fall In Love

Year: 2002 - Album: Shenanigans

  		Don't Wanna Fall In Love

intro:D#

D#      D#        D#     D#
Don't want to have you hanging
Around me like a leech
I think your just a problem
So stay the hell away from me
Because I don't believe in you

    Ab                           D#
And I wanna sit here all my life alone
     Bb                 Ab   
This may sound a little rough
                           D#
Don't want to fall in love

D#    D#    D#      D#    
Don't need security
I ain't no dog without a bone
Don't have no time for love
So stay the fuck away from me
Because I don't believe in you

    Ab                           D#
And I wanna sit here all my life alone
     Bb                 Ab   
This may sound a little rough
                           D#
Don't want to fall in love

solo

     Bb                 Ab
This may sound a little fucked
                           D#
Don't want to fall in love

solo:
-------------------------------------------------------
-------------------------------------------------------
-------------------------------------------------------
-8-8-8--8-10-8-8---8-8-8-8-10-8-8--8---8-8-8-8-10-8-8--
----------------10---------------10------------------10
-------------------------------------------------------

------------------------------------------------------
------------------------------------------------------
------------------------------------------------------
8--------------10-10-10-15-13---------13h15-13--------
-11-11-11-11-11---------------15-13-12--------15-13--
------------------------------------------------------


acordes:
   E A D G B E
D#   6 x 8 8
Ab 4 6 6 5 
Bb 6 8 8 7

_______________________________________________________
Contribuição: Eduardo Verona([email protected]) 
	  

Full key step upFull key step up
Half key step upHalf key step up
Half key step downHalf key step down
Full key step downFull key step down
Search Paypal
auto scroll beats size up size down change color hide chords simplify chords drawings columns
tab show chords e-chords YouTube Clip e-chords hide all tabs e-chords go to top tab

share with facebook