Gary Moore

Since I Met You Baby

Gary Moore

chords

by  GUSTSILVA

save to print version add songbook text version e-mail correct tuner
chordsukulelecavacokeyboardtabbassdrumsharmonicaflute Guitar Pro
close

there isn't a video lesson for this song

chords

Since I Met You Baby

	  		
Gtr I (E A D G) - 'Andy Pyle - Bass' 

 Intro & Interlude 
 Q=150(8=s8/shuffle feel) 
        Segno $ 
 4/4 
  Gtr I 
   H        Q  Q  Q  Q    E E Q  Q  E E   E E Q  Q  E E   E E Q  E E Q 
G|------||--------------|---------------|-----------2---|-5---3--2-x----| 
D|------||o----------0--|-3---1--0------|-----2--5----5-|---5--------2--| 
A|------||o----0--3-----|---3-------4-4-|-3-3-----------|---------------| 
E|------||--1-----------|---------------|---------------|---------------| 


                                                      To Coda 
   E E Q  Q  Q    E E Q  Q  E E   E E Q  Q  Q    E E Q  Q  Q 
G|--------------|---------------|--------------|--------------|| 
D|-----2--3--4--|-5---3--2------|--------------|--------------|| 
A|-5-5----------|---5-------5-5-|-3-3----------|-----0--1--2--|| 
E|--------------|---------------|-----0--1--2--|-3-3----------|| 


 1st & 2nd Verses 
   Q  Q  H      Q  Q  H      Q  Q  H      W 
G|------------|------------|------------|------| 
D|------------|-3----------|------------|------| 
A|-3----------|------------|-3----------|------| 
E|------------|------------|------------|------| 


                                        1.               2. 
                                                        Dal Segno al Coda 
   Q  Q  H      Q  Q  H      Q  Q  H      Q  Q  Q  Q      Q  Q  Q  Q 
G|------------|------------|------------|--------------||-------------|| 
D|------------|------------|------------|-------------o||----0--1--2--|| 
A|-3----------|------------|-3----------|----1--0-----o||-------------|| 
E|------------|-1----------|------------|----------3---||-------------|| 


 Guitar Solo 
 Coda & 
   E E Q  Q  E E   E E Q  Q  Q    Q  Q  Q  Q    Q  Q  Q  Q 
G|---------------|--------------|-------------|-------------| 
D|---------------|--------------|-------------|----0--1--2--| 
A|-3-3-------0-3-|-----0--1--2--|-3--------0--|-3-----------| 
E|-----0--3------|-1-1----------|----0--3-----|-------------| 


   E E Q  E E Q    E E Q  Q  E E   E E Q  Q  E E   E E Q  Q  Q 
G|---------------|---------------|---------------|--------------| 
D|-3-3--------0--|-3---1--0------|-----2--5--2-5-|--------------| 
A|-----0--3-x----|---3-------4-4-|-3-3-----------|-3-3-1--------| 
E|---------------|---------------|---------------|--------0--4--| 


   E E Q  E E E E   E E Q  Q  Q    E E Q  Q  Q    E E E E Q  Q 
G|----------------|--------------|--------------|---------------|| 
D|------------2-2-|-3-3----------|--------------|---------------|| 
A|-----2--5-5-----|-----0--1--2--|-3-3----------|-----0-0-1--2--|| 
E|-3-3------------|--------------|-----0--1--2--|-3-3-----------|| 


 Chorus 
   Q  Q  Q  Q    E E Q  Q  Q    E E Q  Q  Q    E E Q  Q  Q 
G|-------------|--------------|--------------|--------------| 
D|-------------|--------------|--------------|-----0--1--2--| 
A|-3--------0--|-3-3-0--------|-3-3-------0--|-3-3----------| 
E|----0--3-----|--------3--0--|-----0--3-----|--------------| 


   E E Q  Q  Q    E E Q  Q  E E   E E Q  Q  E E   E E Q  E E Q 
G|--------------|---------------|-----------2---|-5---3--2-x----| 
D|-3-x-------0--|-3---1--0------|-----2--5----5-|---5--------2--| 
A|-----0--3-----|---3-------4-4-|-3-3-----------|---------------| 
E|--------------|---------------|---------------|---------------| 


   E E Q  Q  Q    E E Q  Q  E E   E E Q  Q  Q    E E Q  Q  Q 
G|--------------|---------------|--------------|--------------|| 
D|-----2--3--4--|-5---3--2------|--------------|--------------|| 
A|-5-5----------|---5-------5-5-|-3-3----------|-----0--1--2--|| 
E|--------------|---------------|-----0--1--2--|-3-3----------|| 


 Guitar Solo 
   Q  Q  Q  Q    E E Q  Q  Q    E E Q  Q  Q    E E Q  Q  Q 
G|-------------|--------------|--------------|--------------| 
D|----0--1--2--|-3-x----------|--------------|--------------| 
A|-3-----------|-----0--1--2--|-3-3-------0--|-3-3-1--0-----| 
E|-------------|--------------|-----0--3-----|-----------3--| 


   Q  Q  Q  Q    E E Q  Q  E E   E E Q  Q  E E   E E Q  E E Q 
G|-------------|---------------|-----------2---|-5---3--2-x----| 
D|----------0--|-3---1--0------|-----2--5----5-|---5--------2--| 
A|----0--3-----|---3-------4-4-|-3-3-----------|---------------| 
E|-1-----------|---------------|---------------|---------------| 


   E E Q  Q  Q    E E Q  Q  E E   E E Q  Q  Q    E E Q  Q  Q 
G|--------------|---------------|--------------|--------------|| 
D|-----2--3--4--|-5---3--2------|-----2--3--4--|-5-5----------|| 
A|-5-5----------|---5-------5-5-|-3-3----------|-----0--1--2--|| 
E|--------------|---------------|--------------|--------------|| 


   Q  Q  Q  E E   Q  Q  Q  Q    Q  Q  Q  E E   Q  Q  Q  Q 
G|--------------|-------------|----------2---|-------------| 
D|--------------|-------------|----2--5----5-|----0--1--2--| 
A|-3--1--0------|----0--1--2--|-3------------|-3-----------| 
E|----------3-3-|-1-----------|--------------|-------------| 


   E E Q  Q  Q    E E Q  Q  E E   E E Q  Q  E E   E E Q  E E Q 
G|--------------|---------------|-----------2---|-5---3--2-x----| 
D|-3-x-------0--|-3---1--0------|-----2--5----5-|---5--------2--| 
A|-----0--3-----|---3-------4-4-|-3-3-----------|---------------| 
E|--------------|---------------|---------------|---------------| 


   E E Q  Q  Q    E E Q  Q  E E   Q  Q  Q  Q    Q  Q  Q  E E 
G|--------------|---------------|-------------|----2--3--4h5-|| 
D|-----2--3--4--|-5---3--2------|----2--3--4--|-5------------|| 
A|-5-5----------|---5-------5-5-|-3-----------|--------------|| 
E|--------------|---------------|-------------|--------------|| 


 Chorus 
   Q  Q  Q  Q    E E Q  Q  Q    E E Q  Q  Q    E E Q  Q  Q 
G|-------------|--------------|--------------|--------------| 
D|-------------|--------------|--------------|--------------| 
A|-3--------0--|-3-3-0--------|-3-3-------0--|-3-3-1--0-----| 
E|----0--3-----|--------3--0--|-----0--3-----|-----------3--| 


   Q  Q  Q  Q    E E Q  Q  E E   E E Q  Q  E E   E E Q  E E Q 
G|-------------|---------------|-----------2---|-5---3--2-x----| 
D|----------0--|-3---1--0------|-----2--5----5-|---5--------2--| 
A|----0--3-----|---3-------4-4-|-3-3-----------|---------------| 
E|-1-----------|---------------|---------------|---------------| 


                                         Outro (Free Time) 
                                                  TP 
   E E Q  Q  Q    Q  Q  H      W           Q  E E +H 
G|--------------|------------|----------||---------------| 
D|-----2--3--4--|-5----------|----------||---------------| 
A|-5-5----------|------------|----------||----4-3-(3)----| 
E|--------------|------------|----------||---------------| 


   TP           TP           TP           TP 
   +W           +W           +W           +H.      Q 
G|------------:------------:------------:-------------*| 
D|------------:------------:------------:-------------*| 
A|-(3)--------:-(3)--------:-(3)--------:-(3)------3--*| 
E|------------:------------:------------:-------------*| 

************************************ 
Duration Legend 

W - whole; H - half; Q - quarter; E - 8th; S - 16th; a - acciaccatura;  
+ - note tied to previous; . - note dotted; 
Duration letters will always appear directly above the note/fret number it represents the 
duration for.  Duration letters with no fret number below them represent rests. 
Uncapitalized letters represent notes that are staccato (1/2 duration).  

|  (n)  -  note tied to previous 
|   h   -  hammer-on 
|  TP   -  tremolo picking 
|   x   -  muted 
************************************** 
		  

See also:

chords Elton John - Your Song chords The Beatles - Hey Jude chords The Beatles - Yesterday chords Queen - Love of my Life chords Radiohead - Creep chords The Beatles - All My Loving
e-chords

Other versions:

chords Sonny James - Since I Met You Baby chords Gary Moore - Since I Met You Baby
auto scroll beats size up size down change color hide chords simplify chords drawings columns
tab show chords e-chords YouTube Clip e-chords hide all tabs e-chords go to top tab

share