Gabriel Duarte

Ao Rei Jesus

Gabriel Duarte

chords Advanced advanced

by  ANG-LETRA

save to print version add songbook text version e-mail correct tuner
chordsukulelecavacokeyboardtabbassdrumsharmonicaflute Guitar Pro
close

there isn't a video lesson for this song

chords

Ao Rei Jesus

	  		E|--------------------------------------| 
B|--------5--5h6p5h6p5------------------| 
G|----5---------------------------------| 
D|-7------------------------------------| 
A|--------------------------------------| 
E|--------------------------------------|  
 
E|--------------------------------------| 
B|-------------------5h6p5h6p5----------| 
G|-5--4-----------5-------------b7------| 
D|-------5--7--5------------------------| 
A|--------------------------------------| 
E|--------------------------------------| 
tab
F9 G Ao rei Jesus, Ao rei Jesus Am C7 o nosso louvor e a nossa adoração F9 Dm Digno de glória, digno de glória Am G E adoração, e adoração F9 Dm Não há outro que se compara a ti Am G Não há outro que se compara a ti

Full key step upFull key step up
Half key step upHalf key step up
Half key step downHalf key step down
Full key step downFull key step down
are you left-handed?
hide glossary

See also:

chords Fernanda Brum - Espírito Santo chords Harpa Cristã - Quão grande és tu chords Anderson Freire - Raridade chords Aline Barros - Ressuscita-me chords Cassiane - Hino da vitória chords Voz da Verdade - O Escudo
e-chords

Other versions:

chords Gabriel Duarte - Ao Rei Jesus
auto scroll beats size up size down change color hide chords simplify chords drawings columns
tab show chords e-chords YouTube Clip e-chords hide all tabs e-chords go to top tab

share