Franz Gruber

home > Franz Gruber

Noite Feliz Chords

Franz Gruber

Difficulty: EasyEasy

by Acelot

tuner correct add songbook print version text version save to e-mail
chordsukulelecavacokeyboardtabbassdrumsharmonicsflute Guitar Pro
chords

Noite Feliz

(Stille Nacht/ Pe.Joseph Mohr/ Franz Gruber)

  		
Intro: E A7 B  

e|---------4-----------3-----------2-----0-----------|  
B|---------------------------------------0--------0--|  
G|----2\4-----4---2\3-----3---1\2-----2--1--------2--|  
D|------------------------------------------------1--|  
A|------------------------------------------0--1--2--|  
E|---------------------------------------0-----------|  

Tema: E B A E  

e|---------7-------7---9----7-----4----------|  
B|---8\9-------9-------10---9-----5----------|  
G|-------------------------------------------|  
D|-------------------------------------------|  
A|-------------------------------------------|  
E|---0-------------------------------0--0-0--|  

e|---------7-------7---9----7---3--4----4----|  
B|---8\9-------9-------10---10--4--5--5------|  
G|-------------------------------------------|  
D|-------------------------------------------|  
A|-----------------------------------------0-|  
E|---0-----------------------------0---------|  

e|----2------------0-----------0----------------0------|  
B|-----------0--------4---------------------------0----|  
G|-------2-------2----5-----------------1--------------|  
D|--------------------4--------------2-------2---------|  
A|--2----------2-------0-------------------------------|  
E|-----------------------------0-----------0---------0-|  


e|-------------------------------------------------------------|  
B|---2-----2--2--2--3--4--5-----5-----5/0-------------2-0----2-|  
G|---2--2-----2--2--4--5--6---6-------------------1-------0--1-|  
D|----------------------------------------------2--------------|  
A|---0---------------------------------------------------------|  
E|--------------------------6---------------0-------0--------0-|  

e|---2-------2---2\5-------5/-0-----------0----3/4-|  
B|---------0-------------0-----------0---------4/5-|  
G|------2------2-------6-----------1---1-----------|  
D|-------------------------------------------------|  
A|---2---------------0-----------2-----------------|  
E|-----------------------------0-------------------|  

e|--0-------------------------------------------------------------|  
B|--0--0---0-------------5--5---8/7h5---5--5---5-----5-----5------|  
G|--1----1----2--4p5/6----------------6------7---7-6---6-5---5-4/-|  
D|-----------1----------------6-----------------------------------|  
A|---------------------0------------------------------------------|  
E|--0-------2-----------------------------0-----------------------|  

e|--0--0---------|  
B|--0--2--0--2/3-|  
G|--0--2-----3/4-|  
D|---------------|  
A|---------------|  
E|-----------0---|  

	  

Full key step upFull key step up
Half key step upHalf key step up
Half key step downHalf key step down
Full key step downFull key step down
Search Paypal
auto scroll beats size up size down change color hide chords simplify chords drawings columns
tab show chords e-chords YouTube Clip e-chords hide all tabs e-chords go to top tab