Frankie y los Matadores

Es Sólo Amor

Frankie y los Matadores

chords Easy easy

by  GUSTSILVA

save to print version add songbook text version e-mail correct tuner
chordsukulelecavacokeyboardtabbassdrumsharmonicaflute Guitar Pro
close

there isn't a video lesson for this song

chords

Es Sólo Amor

	  		    Intro. 

    C 
  e----------------|----------------|----------------| 
  b----------------|----------------|----------------| 
  g----------------|----------------|----------------| 
  d-----5-3--2-----|-----5-3--2-----|-----5-3--2-----| 
  a-3-3--------5-5-|-3-3--------5-5-|-3-3--------5-5-| 

  E----------------|----------------|----------------| 


    C 
  e----------------|----------------|----------------| 
  b----------------|----------------|----------------| 
  g----------------|----------------|----------------| 
  d-----5-3--2-----|-----5-3--2-----|-----5-3--2-----| 
  a-3-3--------5-5-|-3-3--------5-5-|-3-3--------5-5-| 

  E----------------|----------------|----------------| 


  C 
  sin querer, sin pensar, 

                           G 
  sientes una cosa que te nace a ti 

           C              F   C 
  que te llena toda de felicidad 

          C               F    C 
  que te pone lista para suspirar 


         C                F     C 
  y de pronto nena te da por reir 

         C                F      C 
  y de pronto nena te da por llorar 


       F              G 
  es amor que llega a ti 

          C           Am 
  es el amor en tu vivir 

       F             G          C 
  es amor, es solo amor  oh oh oh 


    C 
  e----------------|----------------| 
  b----------------|----------------| 
  g----------------|----------------| 
  d-----5-3--2-----|-----5-3--2-----| 
  a-3-3--------5-5-|-3-3--------5-5-| 

  E----------------|----------------| 


  C 
  a reir, a gozar 

                             G 
  que la vida empieza ahora para ti 

        C               F    C 
  y te llena toda de felicidad 

       C                      F      C 
  hay ternura hermosa en tu dulce mirar 


         C                F     C 
  y de pronto nena te da por reir 

         C                F      C 
  y de pronto nena te da por llorar 


       F               G 
  es amor que llega a ti 

          C           Am 
  es el amor en tu vivir 

       F            G          C 
  es amor es solo amor  oh oh oh 
    -entra solo 

  F G C Am F G C 

    C 
  e----------------|----------------| 
  b----------------|----------------| 
  g----------------|----------------| 
  d-----5-3--2-----|-----5-3--2-----| 
  a-3-3--------5-5-|-3-3--------5-5-| 

  E----------------|----------------| 


  C 
  sin querer, sin pensar, 

                           G 
  sientes una cosa que te nace a ti 

           C              F   C 
  que te llena toda de felicidad 

          C               F    C 
  que te pone lista para suspirar 


         C                F     C 
  y de pronto nena te da por reir 

         C                F      C 
  y de pronto nena te da por llorar 


       F              G 
  es amor que llega a ti 

          C           Am 
  es el amor en tu vivir 

           F            G 
  pide a dios que sepas tu 

       C             Am 
  el amor el cielo azul 

       F              G 
  es amor que llega a ti 

          C           Am 
  es el amor en tu vivir 
		  

Full key step upFull key step up
Half key step upHalf key step up
Half key step downHalf key step down
Full key step downFull key step down
hide glossary

See also:

chords Ira! - Teorema chords Ira! - Vocę ainda pode sonhar chords Deep Purple - When a Blind man cries chords Ira! - Boneca de Cera chords Deep Purple - Woman From Tokyo chords Deep Purple - Burn
e-chords

Other versions:

chords Frankie y los Matadores - Es Sólo Amor
auto scroll beats size up size down change color hide chords simplify chords drawings columns
tab show chords e-chords YouTube Clip e-chords hide all tabs e-chords go to top tab

share