Evans Blue

home > Evans Blue

Just Once Chords

Evans Blue

Difficulty: nolevelnolevel

by tarikike

tuner correct add songbook print version text version save to e-mail
chordsukulelecavacokeyboardtabbassdrumsharmonicsflute Guitar Pro
chords

Just Once

  		
Tuning: Drop C (CGCFAD) 

Intro:

D|---------------------------------------------------------------------------| 
A|---------------------------------------------------------------------------| 
F|---------------------------------------------------------------------------| 
C|---------------------------------------------------------------------------| 
G|----------12-12-----10-10---8-7-8------------------------------------------| 
C|-0--0-0-0-------0-0-------0-------0--0--0-0-0-12-12-0-0-10-10-0-8-7-8-0----| 

D|---------------------------------------------------------------------------| 
A|---------------------------------------------------------------------------| 
F|---------------------------------------------------------------------------| 
C|--------------------------------8-8888-88-88-10-888-0----------------------| 
G|----------12-12-----10-10---8-7-8-8888-88-88-10-888-0----------------------| 
C|-0--0-0-0-------0-0-------0-----8-8888-88-88-10-888-0----------------------| 
                                            **    *** 

D|---------------------------------------------------------------------------| 
A|---------------------------------------------------------------------------| 
F|---------------------------------------------------------------------------| 
C|---------------------------------------------------------------------------| 
G|----------12-12-----10-10---8-7-8------------------------------------------| 
C|-0--0-0-0-------0-0-------0-------0--0--0-0-0-12-12-0-0-10-10-0-8-7-8-0----| 

D|---------------------------------------------------------------------------| 
A|---------------------------------------------------------------------------| 
F|---------------------------------------------------------------------------| 
C|--------------------------------8-8888-88-88-10-888-0----------------------| 
G|----------12-12-----10-10---8-7-8-8888-88-88-10-888-0----------------------| 
C|-0--0-0-0-------0-0-------0-----8-8888-88-88-10-888-0----------------------| 
                                            **    *** let ring 

Verse 

D|---------------------------------------------------------------------------| 
A|---------------------------------------------------------------------------| 
F|---------------------------------------------------------------------------| 
C|---------------------------------------------------------------------------| 
G|---------------------------------------------------------------------------| 
C|-0-0--0000--00--00--0-0-0--0000--00--0000-0-0--0000--00--00--0-------------| 
        ****  **  **  *      ****  **  ****      ****  **  **  * 
D|-----------------------------| 
A|-----------------------------| 
F|-----------------------------| 
C|------------------8-10-------| x2 
G|------------------8-10-------| 
C|-0-0--000-0-0-0-0-8-10-------| 
        ***     *          


Pre-Chorus 

D|-------------------------------| 
A|-----4-------------------------| 
F|-----2-------------------------| 
C|--0-----0--8--88--10-10-10-----| 
G|--0-----0--8--88--10-10-10-----| 
C|--0-----0--8--88--10-10-10-----| 


Chorus 

D|---------------------------------------------------------------------------| 
A|---------------------------------------------------------------------------| 
F|---------------------------------------------------------------------------| 
C|--8--10--7--8--8--10--7--8--88--10--888------------------------------------| 
G|--8--10--7--8--8--10--7--8--88--10--888------------------------------------| 
C|--8--10--7--8--8--10--7--8--88--10--888------------------------------------| 
                              **      *** 


Post-Chorus 

D|---------------------------------------------------------------------------| 
A|---------------------------------------------------------------------------| 
F|---------------------------------------------------------------------------| 
C|---------------------------------------------------------------------------| 
G|----------12-12-----10-10---8-7-8------------------------------------------| 
C|-0--0-0-0-------0-0-------0-------0--0--0-0-0-12-12-0-0-10-10-0-8-7-8-0----| 

D|---------------------------------------------------------------------------| 
A|---------------------------------------------------------------------------| 
F|---------------------------------------------------------------------------| 
C|--------------------------------8-8888-88-88-10-88-10----------------------| 
G|----------12-12-----10-10---8-7-8-8888-88-88-10-88-10----------------------| 
C|-0--0-0-0-------0-0-------0-----8-8888-88-88-10-88-10----------------------| 
                                            **    *** 


Verse 

D|---------------------------------------------------------------------------| 
A|---------------------------------------------------------------------------| 
F|---------------------------------------------------------------------------| 
C|---------------------------------------------------------------------------| 
G|---------------------------------------------------------------------------| 
C|-0-0--0000--00--00--0-0-0--0000--00--0000-0-0--0000--00--00--0-------------| 
        ****  **  **  *      ****  **  ****      ****  **  **  * 
D|-----------------------------| 
A|-----------------------------| 
F|-----------------------------| 
C|------------------8-10-------| x2 
G|------------------8-10-------| 
C|-0-0--000-0-0-0-0-8-10-------| 
        ***     *          

Pre-Chorus 

D|-------------------------------| 
A|-----4-------------------------| 
F|-----2-------------------------| 
C|--0-----0--8--88--10-10-10-----| 
G|--0-----0--8--88--10-10-10-----| 
C|--0-----0--8--88--10-10-10-----| 

Chorus 

D|---------------------------------------------------------------------------| 
A|---------------------------------------------------------------------------| 
F|---------------------------------------------------------------------------| 
C|--8--10--7--8--8--10--7--8--88--10--888------------------------------------| 
G|--8--10--7--8--8--10--7--8--88--10--888------------------------------------| 
C|--8--10--7--8--8--10--7--8--88--10--888------------------------------------| 
                              **      *** 

Post-Chorus 

D|---------------------------------------------------------------------------| 
A|---------------------------------------------------------------------------| 
F|---------------------------------------------------------------------------| 
C|---------------------------------------------------------------------------| 
G|----------12-12-----10-10---8-7-8------------------------------------------| 
C|-0--0-0-0-------0-0-------0-------0--0--0-0-0-12-12-0-0-10-10-0-8-7-8-0----| 

D|---------------------------------------------------------------------------| 
A|---------------------------------------------------------------------------| 
F|---------------------------------------------------------------------------| 
C|--------------------------------8-8888-88-88-10-88-10----------------------| 
G|----------12-12-----10-10---8-7-8-8888-88-88-10-88-10----------------------| 
C|-0--0-0-0-------0-0-------0-----8-8888-88-88-10-88-10----------------------| 
                                            **    *** 

Bridge 

D|---------------------------------------------------------------------------| 
A|---------------------------------------------------------------------------| 
F|---------------------------------------------------------------------------| 
C|-0-------------------------------------------------------------------------| 
G|-0-------------------------------------------------------------------------| 
C|-0----------------------------0--------------------------------------------| 
   let ring                     let ring at start of solo 

D|---------------------------------------------------------------------------| 
A|---------------------------------------------------------------------------| 
F|---------------------------------------------------------------------------| 
C|--7-77-7-77--3-33-3-33--7-77-7-77--33-33--5--5--5-----(x2)-----------------| 
G|--5-55-5-55--1-11-1-11--5-55-5-55--11-11--3--3--3--------------------------| 
C|---------------------------------------------------------------------------| 
      **   **    **   **    **   **     ** 

Chorus 

D|---------------------------------------------------------------------------| 
A|---------------------------------------------------------------------------| 
F|---------------------------------------------------------------------------| 
C|--8--10--7--8--8--10--7--8--88--10--888------------------------------------| 
G|--8--10--7--8--8--10--7--8--88--10--888------------------------------------| 
C|--8--10--7--8--8--10--7--8--88--10--888------------------------------------| 
                              **      *** 

Outro 

D|---------------------------------------------------------------------------| 
A|---------------------------------------------------------------------------| 
F|---------------------------------------------------------------------------| 
C|---------------------------------------------------------------------------| 
G|----------12-12-----10-10---8-7-8------------------------------------------| 
C|-0--0-0-0-------0-0-------0-------0--0--0-0-0-12-12-0-0-10-10-0-8-7-8-0----| 

D|---------------------------------------------------------------------------| 
A|---------------------------------------------------------------------------| 
F|---------------------------------------------------------------------------| 
C|--------------------------------8-8888-88-88-10-888-0----------------------| 
G|----------12-12-----10-10---8-7-8-8888-88-88-10-888-0----------------------| 
C|-0--0-0-0-------0-0-------0-----8-8888-88-88-10-888-0----------------------| 
                                            **    *** 

D|---------------------------------------------------------------------------| 
A|---------------------------------------------------------------------------| 
F|---------------------------------------------------------------------------| 
C|---------------------------------------------------------------------------| 
G|----------12-12-----10-10---8-7-8------------------------------------------| 
C|-0--0-0-0-------0-0-------0-------0--0--0-0-0-12-12-0-0-10-10-0-8-7-8-0----| 

D|---------------------------------------------------------------------------| 
A|------------------------------------------------------------3--------------| 
F|------------------------------------------------------------2--------------| 
C|--------------------------------8-8888-88-88-10-888-0-----------xxxx-------| 
G|----------12-12-----10-10---8-7-8-8888-88-88-10-888-0-----------xxxx-------| 
C|-0--0-0-0-------0-0-------0-----8-8888-88-88-10-888-0-----------xxxx-------| 
                                            **    *** let ring 
	  

Search Paypal
auto scroll beats size up size down change color hide chords simplify chords drawings columns
tab show chords e-chords YouTube Clip e-chords hide all tabs e-chords go to top tab