Daniele Silvestri

home > Daniele Silvestri

Un Giorno Lontano Chords

Daniele Silvestri

Difficulty: IntermediateIntermediate

by hebealmeida

tuner correct add songbook print version text version save to e-mail
chordsukulelecavacokeyboardtabbassdrumsharmonicsflute Guitar Pro
chords

Un Giorno Lontano

  		Intro: D E F#m C#m D A C#m C#m x2 

   D               E              F#m             C#m 
e|-------10------|-------12------|-------9-------|---------------| 
B|-----7---------|-----9---------|-------10------|-------9-------| 
G|---7-----------|---9-----------|-----11--------|-------10------| 
D|-7-------------|-9-------------|---11----------|-----11--------| 
A|---------------|---------------|-9-------------|---11----------| 
E|---------------|---------------|---------------|-9-------------| 

  D                A               C#m               C#m 
e|-------10------|-------5-------|-----------------|----------------| 
B|-----7---------|-----5---------|-------5-------5-|------5-------5-| 
G|---7-----------|---8-----------|-----6-----6-----|--6-------6-----| 
D|-7-------------|-7-------------|---6---------6---|----6-------6---| 
A|---------------|---------------|-4---------------|----------------| 
E|---------------|---------------|-----------------|----------------| 

Verse 
D          E      F#m    C#m        D         A          C#m 
Un giorno lontano sorriderò persino ma adesso non ci sei più 
D        E      F#m     C#m            D         A          C#m 
domani per caso confonderò il tuo viso, ma adesso non ci sei più 
D          E        F#m     C#m         D       A             C#m 
non basta che giuri che scorderò chi eri, adesso, adesso ci sei tu 
           D                 C#m       D                   C#m 
nei miei occhi adesso ci sei tu, nelle orecchie adesso ci sei tu 
        E 
ci sei tu 

tabchorus
A F#m C#m E ci sei solo tu A F#m C#m E ci sei solo tu
tab
Verse D E F#m C#m D A C#m sapere che è giusto che è tutto stanco e guasto non basta a non volerti più D E F#m C#m D A C#m vederti partire non ti farà sparire, adesso, adesso ci sei tu D C#m D C#m nei miei occhi adesso ci sei tu , sulla bocca adesso ci sei tu
tabchorus
A F#m C#m E ci sei solo tu A F#m C#m E ci sei solo tu
tab
Outro: A F#m C#m E (x2)

Full key step upFull key step up
Half key step upHalf key step up
Half key step downHalf key step down
Full key step downFull key step down
Search Paypal
auto scroll beats size up size down change color hide chords simplify chords drawings columns
tab show chords e-chords YouTube Clip e-chords hide all tabs e-chords go to top tab