Dance of Days

Dorian

Dance of Days

chords Advanced advanced

save to print version add songbook text version e-mail correct tuner
chordsukulelecavacokeyboardtabbassdrumsharmonicaflute Guitar Pro
close

there isn't a video lesson for this song

chords

Dorian

	  		 
  D                                 C                       D 
E|----------------3-2------------------3-2------0--------------------------2-3-2-0-2-------- 
B|------3--------------------3---------------1----1-------(1)--------------3-3-3-3-3-------- 
G|---2p0--0---2p0--------2p0--0----2p0-------0------0-------(0)?(7)--------2-2-2-2-2-------- 
D|-0--------0---------0----------0-----------2------------------(7)------------------------- 
A|-------------------------------------------3---------2-3------(5)---(0)-----(2h3-5-3-2)--- 
E|---------------------------------------------------------------------------------------(3) 
                                               G 
---------3---0------------3-------------------------- 
---------3-----1------------3------------------------ 
---------2-------0------------0---------------------- 
----------------------------------------------------- 
----2-----------------(3)-----------(2-3-2-0--------5)...- 
-3--------------------------------------------(3---(3)...- 
Entre ()=segunda guitarra. 
...= várias vezes 
Nota G faz abafado várias vezes 
INTRO 
 
E|--10-10---10-10--10-10---10-10---8-8-8-8?7-5----5-?8-8-8-8-10-8-7-8- 
B|-8--8--8-8--8---8--8--8-8--8------------------8--------------------- 
G|-------------------------------------------------------------------- 
D|-------------------------------------------------------------------- 
A|-------------------------------------------------------------------- 
E|-------------------------------------------------------------------- 
RIFF1 
 
(G D C) RIFF1 
Tantos motivos pra para 
Tantos motivos pra dizer que não 
Faz diferença estar bem 
 
(G D) 
Entre o corpo esquálido 
E o cálice vazio 
Entre os lábios rachados  
entre as cinzas de que 
Restou pra ti frente a teus medos 
Do que contarás para teus filhos 
Entre o espaço dos dias, que nunca se vão 
E o olhar deprimido frente a televisão 
Trair tudo o que sentes se repete 
Quão mais tente dizer saber que não há 
 
 (G D C) RIFF1 
Tantos motivos pra para e  
Tantos motivos pra dizer que não. 
Faz diferença estar bem. 
 
(E D C) 
Por que me acordou? 
Por que me quer bem? 
Feche a porta do meu quarto. 
Não me importa ser exato. 
No que desejei. 
 
(G A B C) 
Narciso se olhou dentro dos olhos. 
Como se estivesse fora do seu corpo. 
Nunca se sentiu tão doente. 
(Estamos fora do ar temporariamente. 
Pois nossos transmissores estão em manutenção.) 
Serei eu esse anjo caído no chão? 
Já não se parece mais comigo... 
Já não se parece mais domingo... 
 
(G D C) RIFF1 
Mãe, mãe, mãe, mãe. 
Diz que não foi nada eu fui. 
Tão, tão, tão, tão. 
Cego voando ruma a luz. 
Mãe, mãe, mãe, mãe. 
Perdi minhas asas no fogo. 
Não, não, não. 
Meus braços sangram. 
 
 
_______________________________________________________ 
Contribuição: Vinicius Sera Colasanto([email protected]) 

		  

Full key step upFull key step up
Half key step upHalf key step up
Half key step downHalf key step down
Full key step downFull key step down
hide glossary

See also:

chords Baitaca - Do Fundo Da Grota chords Di Paulo e Paulino - Nada mudou chords Marina Elali - Eu Vou seguir chords Di Paulo e Paulino - Onde anda você chords Ataíde e Alexandre - Te amar foi um erro chords Eliana Ribeiro - Livre acesso
e-chords

Other versions:

chords Dance of Days - Dorian chords Agnes Obel - Dorian
auto scroll beats size up size down change color hide chords simplify chords drawings columns
tab show chords e-chords YouTube Clip e-chords hide all tabs e-chords go to top tab

share