CTMDT

Não Haverá Limites

CTMDT

chords Beginner beginner

by  BGRIPP

save to print version add songbook text version e-mail correct tuner
chordsukulelecavacokeyboardtabbassdrumsharmonicaflute Guitar Pro
close

there isn't a video lesson for this song

chords

Não Haverá Limites

	  		CTMDT    
Não Haverá Limites   
INTRO         /Solo Guitarra/BAIXO   
E  (D/F# G) D (Am) C (D  E) Am   
E   D   C   Am     (B C B  A  B  A G  E)   
    
Intro: solo guitarra  
E|--12----12-10----10------------------------------|  
B|-----10-------12----12-10-↑11-12-10-12-10--------|  
G|---------------------------------------------11-9|  
D|-------------------------------------------------|  
A|-------------------------------------------------|  
E|-------------------------------------------------|  
↑=Bend 

E|--12----12p10----10----------8-7-----7-----------|  
B|-----10-------12---12-10-12------8-10------------|  
G|---------------------------------------7-9-------|  
D|-------------------------------------------------|  
A|-------------------------------------------------|  
E|-------------------------------------------------|  

Riff 1:posso ver o autor da vida~.............  
E|-----------------------------------|  
B|----------10-12--------------------|  
G|---9---12--------------------------|  (3x)  
D|-----------------------------------|  
A|-----------------------------------|  
E|-----------------------------------|  

E|------12-10-----------------|--------------------------------|  
B|------------12-10-----------|----------10-12-10~-------------|  
G|---9--------------12-9------|---9---12-----------------------|  
D|----------------------------|--------------------------------|  
A|----------------------------|--------------------------------|  
E|----------------------------|--------------------------------|  

Em                          D   
Posso ver o autor da vida    
 C                                Am        D   
Escrevendo a história de uma geração   
Em                          D     
Levantando o seu exercito   
               Am              G                D    
Para cumprir o desejo do seu coração (2x)   

Riff 2:começa em mim senhor~..............  
E|---7------------7----------------------|  
B|-----8------------8--------------------|  
G|-------9-7-6-5------7~-----------------|  
D|---------------------------------------|  
A|---------------------------------------|  
E|---------------------------------------|  

E|---7-----------7-8---------------------|  
B|-----8-------8-----10~-----------------|  
G|-------9-7-9---------------------------|  
D|---------------------------------------|  
A|---------------------------------------|  
E|---------------------------------------|  

                C                  Am      
Começa em mim Senhor   
                Em             D   
Começa em mim Senhor   
            C         Am      (G  Am) D/F#   
A geração que vive pelo Teu amor   
                C                D     
Começa em mim Senhor   
                Em             D/F#   
Começa em mim Senhor   
           Am       C        G        D   
A geração que vive pelo Teu amor (2x)   

   
tabchorus
C Em Juntos levaremos Tua luz C Em D/F# E levantaremos nossa voz C Em D Juntos viveremos como Jesus C Em D E não haverá limites pra nós
tab
(E G F# E D E) VERSO (E F# G E) (D E F# D) Posso ver o autor da vida (C D E C C C) (Am B C Am) Escrevendo a história de uma geração (E G F# E D E) (E F# G E E) D/F# G Levantando o seu exercito C Am D Para cumprir o desejo do seu coração (2x) C Am Começa em mim Senhor Em D Começa em mim Senhor C Am (G Am) D/F# A geração que vive pelo Teu amor C D Começa em mim Senhor Em D/F# Começa em mim Senhor Am C G D A geração que vive pelo Teu amor
tabchorus
(2X) C D Em Juntos levaremos Tua luz C D Em D/F# E levantaremos nossa voz C D Em Bm Juntos viveremos como Jesus C Em D E não haverá limites pra nós
tab
INTERLUDIO (solo) C D Em D/F# 2X Am Não olharemos pra trás Em D/F# Não retrocederemos mais C G D/F# Vivemos em santidade pelo poder de Deus Am Não olharemos pra trás Em D/F# Não retrocederemos mais C G D/F# Vivemos em santidade pelo poder de Deus ULTIMO C Am Não olharemos pra trás Em D/F# Não retrocederemos mais Am C G D Vivemos em santidade pelo poder de Deus REFRAO final C D Em Bm Juntos levaremos Tua luz C D Em D/F# E levantaremos nossa voz C D Em Bm Juntos viveremos como Jesus Am Em D E não haverá limites pra nós
tabchorus
C D Em Bm Juntos levaremos Tua luz C D Em (D/F# G Am) E levantaremos nossa voz C D Em Bm Juntos viveremos como Jesus C B C E não Haverá 4x C Em D Bm E não haverá limites pra nós 2X C Am (D Am G/B D) (G D/F# D Em) E não haverá limites pra nós
tab

Full key step upFull key step up
Half key step upHalf key step up
Half key step downHalf key step down
Full key step downFull key step down
hide glossary

See also:

chords Fernanda Brum - Espírito Santo chords Harpa Cristã - Quão grande és tu chords Anderson Freire - Raridade chords Aline Barros - Ressuscita-me chords Cassiane - Hino da vitória chords Voz da Verdade - O Escudo
e-chords

Other versions:

chords CTMDT - Não Haverá Limites
auto scroll beats size up size down change color hide chords simplify chords drawings columns
tab show chords e-chords YouTube Clip e-chords hide all tabs e-chords go to top tab

share