Close Your Eyes

Song For The Broken

Close Your Eyes

chords

by  ALEFFEDERICO

save to print version add songbook text version e-mail correct tuner
chordsukulelecavacokeyboardtabbassdrumsharmonicaflute Guitar Pro
close

there isn't a video lesson for this song

chords

Song For The Broken

	  		                                  --Intro-- 

Both Guitar 
D#|-------------2~---------2~---------2~---------2~---------------------------| 
A#|-------------5~---------5~---------5~---------5~---------------------------| 
F#|-------------4~---------4~---------4~---------4~---------------------------| 
C#|222222222----2~---------2~---------2~---------2~---------------------------| 
G#|222222222------------------------------------------------------------------| 
C#|222222222------------------------------------------------------------------| 
   ********* 

                               --Pre-Verse-- 

Guitar 1 
D#|---------------------------------------------------------------------------| 
A#|---------------------------------------------------------------------------| 
F#|---------------------------------------------------------------------------|  x2 
C#|----2-222-------222-------222-0~-------------------------------------------| 
G#|12\-2-222-------222-------222-0~-------------------------------------------| 
C#|12\-2-222-------222-------222-0~-------------------------------------------| 

Guitar 2 
D#|---------------------------------------------------------------------------| 
A#|------------5---------5----------------------------------------------------| 
F#|----------5-7b9-----5-7b9--------------------------------------------------|  x2 
C#|---------------------------------------------------------------------------| 
G#|---------------------------------------------------------------------------| 
C#|---------------------------------------------------------------------------| 


                                 --verse 1-- 

Guitar 1 
Keep this 
D#|---------------------------------------------------------------------------| 
A#|---------------------------------------------------------------------------| 
F#|---------------------------------------------------------------------------| 
C#|----2-222-------222-------222-0~-------------------------------------------|   
G#|12\-2-222-------222-------222-0~-------------------------------------------| 
C#|12\-2-222-------222-------222-0~-------------------------------------------| 

Guitar 2 
D#|---------------------------------------------------------------------------| 
A#|---------------------------------------------------------------------------| 
F#|---16-17-16-12\9-7/4-------------------------------------------------------| 
C#|14---------------------------------------10--9--7--------------------------| 
G#|-------------------------7--5--7--9--10------------------------------------| 
C#|---------------------------------------------------------------------------| 

D#|---------------------------------------------------------------------------| 
A#|---------------------------------------------------------------------------| 
F#|---16-17-16-12\9-7/4-------------------------------------------------------| 
C#|14-------------------------------------------------------------------------| 
G#|-------------------------7--5---7/9---9/10--10/12--------------------------| 
C#|---------------------------------------------------------------------------| 

D#|---------------------------------------------------------------------------| 
A#|---------------------------------------------------------------------------| 
F#|---16-17-16-12\9-7/4-------------------------------------------------------| 
C#|14---------------------------------------10--9--7--------------------------| 
G#|-------------------------7--5--7--9--10------------------------------------| 
C#|---------------------------------------------------------------------------| 

D#|---------------------------------------------------------------------------| 
A#|---------------------------------------------------------------------------| 
F#|---16-17-16-12\9-7/4-------------------------------------------------------| 
C#|14-------------------------------------------------------------------------| 
G#|-------------------------7--5--7---------7--9--12--------------------------| 
C#|---------------------------------------------------------------------------| 


                               --Pre-Chorus-- 

Guitar 1 
D#|---------------------------------------------------------------------------| 
A#|---------------------------------------------------------------------------| 
F#|---------------------------------------------------------------------------| 
C#|5~-------------------------------------------------------------------------| 
G#|5~-------------------------------------------------------------------------| 
C#|5~-------------------------------------------------------------------------| 

Guitar 2 
D#|---------------------------------------------------------------------------| 
A#|---------------------------------------------------------------------------| 
F#|---------------------------------------------------------------------------| 
C#|5~-------------------------------------------------------------------10-9-7| 
G#|5~------------------------------------------------------------7-9-10-------| 
C#|5~-------------------------------------------------------------------------| 


                               --Chorus 1-- 

Both Guitar 
D#|---------------------------------------------------------------------------| 
A#|---------------------------------------------------------------------------| 
F#|---------------------------------------------------------------------------|  x2 
C#|-2222222222222222-0000000000000000-5555555555555555-7777777777777777-------| 
G#|-2222222222222222-0000000000000000-5555555555555555-5555555555555555-------| 
C#|-2222222222222222-0000000000000000-5555555555555555-4444444444444444-------| 


                                --Break-- 
   

Guitar 1 
D#|---------------------------------------------------------------------------| 
A#|---------------------------------------------------------------------------| 
F#|---------------------------------------------------------------------------| 
C#|2----------2-2-2----------2-2-2----------2-2-0-----------------------------| 
G#|2----------2-2-2----------2-2-2----------2-2-0-----------------------------| 
C#|2----------2-2-2----------2-2-2----------2-2-0-----------------------------| 

Guitar 2 
D#|---------------------------------------------------------------------------| 
A#|---------------------5-----------5-----------------------------------------| 
F#|----------------~4-5---5~----------5-4-------------------------------------| 
C#|---------------------------------------------------------------------------| 
G#|---------------------------------------------------------------------------| 
C#|---------------------------------------------------------------------------| 

                               --verse 2-- 
Guitar 1 
Keep this 
D#|---------------------------------------------------------------------------| 
A#|---------------------------------------------------------------------------| 
F#|---------------------------------------------------------------------------|  
C#|2----------2-2-2----------2-2-2----------2-2-0-----------------------------| 
G#|2----------2-2-2----------2-2-2----------2-2-0-----------------------------| 
C#|2----------2-2-2----------2-2-2----------2-2-0-----------------------------| 

Guitar 2 
D#|---------------------------------------------------------------------------| 
A#|---------------------------------------------------------------------------| 
F#|---16-17-16-12\9-7/4-------------------------------------------------------| 
C#|14---------------------------------------10--9--7--------------------------| 
G#|-------------------------7--5--7--9--10------------------------------------| 
C#|---------------------------------------------------------------------------| 

D#|---------------------------------------------------------------------------| 
A#|---------------------------------------------------------------------------| 
F#|---16-17-16-12\9-7/4-------------------------------------------------------| 
C#|14-------------------------------------------------------------------------| 
G#|-------------------------7--5---7/9---9/10--10/12--------------------------| 
C#|---------------------------------------------------------------------------| 

D#|---------------------------------------------------------------------------| 
A#|---------------------------------------------------------------------------| 
F#|---16-17-16-12\9-7/4-------------------------------------------------------| 
C#|14---------------------------------------10--9--7--------------------------| 
G#|-------------------------7--5--7--9--10------------------------------------| 
C#|---------------------------------------------------------------------------| 

D#|---------------------------------------------------------------------------| 
A#|---------------------------------------------------------------------------| 
F#|---16-17-16-12\9-7/4-------------------------------------------------------| 
C#|14-------------------------------------------------------------------------| 
G#|-------------------------7--5--7---------7--9--12--------------------------| 
C#|---------------------------------------------------------------------------| 


                               --Pre-Chorus-- 

Guitar 1 
D#|---------------------------------------------------------------------------| 
A#|---------------------------------------------------------------------------| 
F#|---------------------------------------------------------------------------| 
C#|5~-------------------------------------------------------------------------| 
G#|5~-------------------------------------------------------------------------| 
C#|5~-------------------------------------------------------------------------| 

Guitar 2 
D#|---------------------------------------------------------------------------| 
A#|---------------------------------------------------------------------------| 
F#|---------------------------------------------------------------------------| 
C#|5~-------------------------------------------------------------------10-9-7| 
G#|5~------------------------------------------------------------7-9-10-------| 
C#|5~-------------------------------------------------------------------------| 


                               --Chorus 2-- 

Both Guitar 

D#|---------------------------------------------------------------------------| 
A#|---------------------------------------------------------------------------| 
F#|---------------------------------------------------------------------------| 
C#|-2222222222222222-0000000000000000-5555555555555555-77777777-------------2*|  
G#|-2222222222222222-0000000000000000-5555555555555555-55555555-2-000-2-000---| 
C#|-2222222222222222-0000000000000000-5555555555555555-44444444-2-000-2-000---|                
                                                                  ***   *** 
D#|---------------------------------------------------------------------------| 
A#|---------------------------------------------------------------------------| 
F#|---------------------------------------------------------------------------|   
C#|-2222222222222222-0000000000000000-5555555555555555-7777777777777777-------| 
G#|-2222222222222222-0000000000000000-5555555555555555-5555555555555555-------| 
C#|-2222222222222222-0000000000000000-5555555555555555-4444444444444444-------| 


                                 --Bridge-- 

Guitar 1 
D#|---------------------------------------------------------------------------| 
A#|---------------------------------------------------------------------------| 
F#|---------------------------------------------------------------------------| 
C#|2~-------------------------------2~----------------------------------------| x4 
G#|2~-------------------------------2~----------------------------------------| 
C#|2~-------------------------------2~----------------------------------------| 

Guitar 2 
D#|---------------------------------------------------------------------------| 
A#|---------------------------------------5----------------------5------------| 
F#|-----------------------------------------4--------------------4------------| 
C#|2~-------------------------------2---------5-4---x-4--------x-5------------| x4 
G#|2~-------------------------------2---------------x-5--------x--------------| 
C#|2~-------------------------------2-----------------------------------------| 


                              --Breakdown p.1-- 

Both Guitar 
D#|---------------------------------------------------------------------------| 
A#|---------------------------------------------------------------------------| 
F#|---------------------------------------------------------------------------| x2 
C#|-2-2--2-2-2--2-2-2-2---2-2--2-2-2-2--2-2-2---------------------------------| 
G#|-2-2--2-2-2--2-2-2-2---2-2--2-2-2-2--2-2-2---------------------------------| 
C#|-2-2--2-2-2--2-2-2-2---2-2--2-2-2-2--2-2-2---------------------------------|  
    * *  * * *  * * * *  * *  * * * *  * * *  


                              --Breakdown p.2-- 

Guitar 1 
D#|---------------------------------------------------------------------------| 
A#|---------------------------------------------------------------------------| 
F#|---------------------------------------------------------------------------| 
C#|-2-2--2-2---------2-2--2-2---------2-2--2-2--2-2--2-2---2-2--2-2-----------| 
G#|-2-2--2-2---------2-2--2-2---------2-2--2-2--2-2--2-2---2-2--2-2-----------| 
C#|-2-2--2-2---------2-2--2-2---------2-2--2-2--2-2--2-2---2-2--2-2-----------|  
    * *  * *         * *  * *         * *  * *  * *  * *   * *  * *  

Guitar 2 
D#|--------------2------------2-2-2------------------------------2------------| 
A#|------------3--------------3-3-3--------------------------3-----3---3------| 
F#|----------4----------------4-4-4------------------------4---4-----4--------| 
C#|---------------------------------------------------------------------------| 
G#|---------------------------------------------------------------------------| 
C#|---------------------------------------------------------------------------| 

Guitar 1 
D#|---------------------------------------------------------------------------| 
A#|---------------------------------------------------------------------------| 
F#|---------------------------------------------------------------------------| 
C#|-2-2--2-2---------2-2--2-2---------2-2--2-2-2-2--2--2-2---2-2-2------------| 
G#|-2-2--2-2---------2-2--2-2---------2-2--2-2-2-2--2--2-2---2-2-2------------| 
C#|-2-2--2-2---------2-2--2-2---------2-2--2-2-2-2--2--2-2---2-2-2------------|  
    * *  * *         * *  * *         * *  * * * *  * * *   * * *  

Guitar 2 
D#|--------------2------------2-2-2-------------------------------------------| 
A#|------------3--------------3-3-3-------------------------------------------| 
F#|----------4----------------4-4-4-------------------------------------------| 
C#|---------------------------------------------------------------------------| 
G#|---------------------------------------------------------------------------| 
C#|---------------------------------------------------------------------------| 



                              --Pre-Chorus-- 

Both Guitar 
D#|---------------------------------------------------------------------------| 
A#|---------------------------------------------------------------------------| 
F#|---------------------------------------------------------------------------| 
C#|5~-------------------------------------------------------------------------| 
G#|5~-------------------------------------------------------------------------| 
C#|5~-------------------------------------------------------------------------| 


                               --Chorus 3-- 

Both Guitar 

D#|---------------------------------------------------------------------------| 
A#|---------------------------------------------------------------------------| 
F#|---------------------------------------------------------------------------| 
C#|-2222222222222222-0000000000000000-5555555555555555-77777777-------------2*|  
G#|-2222222222222222-0000000000000000-5555555555555555-55555555-2-000-2-000---| 
C#|-2222222222222222-0000000000000000-5555555555555555-44444444-2-000-2-000---|                
                                                                  ***   *** 
D#|---------------------------------------------------------------------------| 
A#|---------------------------------------------------------------------------| 
F#|---------------------------------------------------------------------------|   
C#|-2222222222222222-0000000000000000-5555555555555555-7777777777777777-------| 
G#|-2222222222222222-0000000000000000-5555555555555555-5555555555555555-------| 
C#|-2222222222222222-0000000000000000-5555555555555555-4444444444444444-------| 


                                 --End-- 

Guitar 1 
D#|---------------------------------------------------------------------------| 
A#|---------------------------------------------------------------------------| 
F#|---------------------------------------------------------------------------| 
C#|-2----------------2----------------2---------------------------------------| 
G#|-2----------------2----------------2---------------------------------------| 
C#|-2----------------2----------------2---------------------------------------| 
                                      * 

Guitar 2 
D#|---------------------------------------------------------------------------| 
A#|-5----5-5-5-5-5-5-5----5-5-5-5-5-5-5---------------------------------------| 
F#|-7b9--9-9-9-9-9-9-7b9--9-9-9-9-9-9-7b9-------------------------------------| 
C#|---------------------------------------------------------------------------| 
G#|---------------------------------------------------------------------------| 
C#|---------------------------------------------------------------------------| 
		  

See also:

chords Elvis Presley - Love Me Tender chords 3 Doors Down - Here Without You chords America - Horse With No Name chords Bob Dylan - Don't think twice chords The Doors - Riders On The Storm chords America - Sister Golden Hair
e-chords

Other versions:

chords Barlow girl - Song For The Broken chords Close Your Eyes - Song For The Broken
auto scroll beats size up size down change color hide chords simplify chords drawings columns
tab show chords e-chords YouTube Clip e-chords hide all tabs e-chords go to top tab

share