Billie Marten

home > Billie Marten

Out Of The Black Chords

Billie Marten

Difficulty: nolevelnolevel

by edsooliveira

tuner correct add songbook print version text version save to e-mail
chordsukulelecavacokeyboardtabbassdrumsharmonicsflute Guitar Pro
chords

Out Of The Black

Capo on 4th fret
  		
 

Intro 

e|---------------------------------------------------------------------------| 
B|---------------------------------------------------------------------------| 
G|-----------0------------------------0--------------------------------------| 
D|------3--------------3-----3----3-------------3-----3----------------------| 
A|---5-----5--------------5--------------------------------------------------| 
E|-----------------------------5----5--------------5-------------------------| 

e|---------------------------------------------------------------------------| 
B|---------------------------------------------------------------------------| 
G|------------0--------------0-------------0---------------------------------| 
D|------5---------------5-------------5---------------5-----5----------------| 
A|---------------------------------------------------------------------------| 
E|---6-----6---------------6-------------6---------------6-------------------| 

verse 1  

same as intro 

how did it feel  
e|---------------------------------------------------------------------------| 
B|---------------------------------------------------------------------------| 
G|-----------0------------------------0--------------------------------------| 
D|------3--------------3-----3----3-------------3-----3----------------------| 
A|---5-----5--------------5--------------------------------------------------| 
E|-----------------------------5----5--------------5-------------------------| 

when it came alive and took you 
e|---------------------------------------------------------------------------| 
B|---------------------------------------------------------------------------| 
G|------------0--------------0-------------0---------------------------------| 
D|------5---------------5-------------5---------------5-----5----------------| 
A|---------------------------------------------------------------------------| 
E|---6-----6---------------6-------------6---------------6-------------------| 

out of the black 
e|---------------------------------------------------------------------------| 
B|---------------------------------------------------------------------------| 
G|-----------0------------------------0--------------------------------------| 
D|------3--------------3-----3----3-------------3-----3----------------------| 
A|---5-----5--------------5--------------------------------------------------| 
E|-----------------------------5----5--------------5-------------------------| 

it broke your skin and shook through every 
e|---------------------------------------------------------------------------| 
B|---------------------------------------------------------------------------| 
G|------------0--------------0-------------0---------------------------------| 
D|------5---------------5-------------5---------------5-----5----------------| 
A|---------------------------------------------------------------------------| 
E|---6-----6---------------6-------------6---------------6-------------------| 

part of me every 
e|---------------------------------------------------------------------------| 
B|---------------------------------------------------------------------------| 
G|-----------0------------------------0--------------------------------------| 
D|------3--------------3-----3----3-------------3-----3----------------------| 
A|---5-----5--------------5--------------------------------------------------| 
E|-----------------------------5----5--------------5-------------------------| 

part of you 
e|---------------------------------------------------------------------------| 
B|---------------------------------------------------------------------------| 
G|------------0--------------0-------------0----------------0----------------| 
D|------5---------------5-------------5---------------5----------------------| 
A|---------------------------------------------------------------------------| 
E|---6-----6---------------6-------------6---------------6-------------------| 

e|---------------------------------------------------------------------------| 
B|---------------------------------------------------------------------------| 
G|------------0--------------0-------------0---------------------------------| 
D|------5---------------5-------------5---------------5-----5----------------| 
A|---------------------------------------------------------------------------| 
E|---6-----6---------------6-------------6---------------6-------------------| 


Chorus 

                                               you made a  
e|----------1----1-------1----1--------1----1--------0----0------------------| 
B|---------(3----3)-----(3----3)------(3----3)------(3----3)-----------------| 
G|---------------------------------------------------------------------------| 
D|---0----0------------0-------------0-----------0---------------------------| 
A|---------------------------------------------------------------------------| 
E|---------------------------------------------------------------------------| 

fool out of me and took the skin of my back running 
e|----------0----0-------0-----0--------0----0-----0/1---1-------------------| 
B|---------(3----3)-----(3-----3)------(3----3)----(3----3)------------------| 
G|---------------------------------------------------------------------------| 
D|---------------------------------------------------------------------------| 
A|--1----1-------------1-------------1------------1--------------------------| 
E|---------------------------------------------------------------------------| 

                                                so don't  
e|-----------1----1-----------1----1-------.-1----1--------0----0------------| 
B|----------(3----3)---------(3----3)-------(3----3)------(3----3)-----------| 
G|---------------------------------------------------------------------------| 
D|---0----0-----------------0-------------0-------------0--------------------| 
A|---------------------------------------------------------------------------| 
E|-------------------0-1-----------------------------------------------------| 

breathe when I talk cause you haven't been spoken to  
e|----------0----0-------0-----0--------0----0-----0/1---1-------------------| 
B|---------(3----3)-----(3-----3)------(3----3)----(3----3)------------------| 
G|---------------------------------------------------------------------------| 
D|---------------------------------------------------------------------------| 
A|--1----1-------------1-------------1------------1--------------------------| 
E|---------------------------------------------------------------------------| 

                                     i've got a 
e|------3p1---------1----1----------0----0-----------------------------------| 
B|-----------------(3----3)--------(3----3)----------------------------------| 
G|---------------------------------------------------------------------------| 
D|---0-----------0-----------------0-----------------------------------------| 
A|---------------------------------------------------------------------------| 
E|----------0-1--------------------------------------------------------------| 

gun for a mouth and a bullet with your name on it   
e|----------0----0-------0-----0--------0----0-----0/1---1-------------------| 
B|---------(3----3)-----(3-----3)------(3----3)----(3----3)------------------| 
G|---------------------------------------------------------------------------| 
D|---------------------------------------------------------------------------| 
A|--1----1-------------1-------------1------------1--------------------------| 
E|---------------------------------------------------------------------------| 

e|-----------1----1-----------1----1-------.-1----1--------0----0------------| 
B|----------(3----3)---------(3----3)-------(3----3)------(3----3)-----------| 
G|---------------------------------------------------------------------------| 
D|---0----0-----------------0-------------0-------------0--------------------| 
A|---------------------------------------------------------------------------| 
E|-------------------0-1-----------------------------------------------------| 

pull the trigger for a heart beating blood from an empty pocket 
e|----------0----0-------0-----0--------0----0------0----0-------------------| 
B|---------(3----3)-----(3-----3)------(3----3)----(3----3)------------------| 
G|---------------------------------------------------------------------------| 
D|---------------------------------------------------------------------------| 
A|--1----1-------------1-------------1------------1--------------------------| 
E|---------------------------------------------------------------------------| 

e|-------0-0--------0-0---------0-0------0-0---------------------------------| 
B|------(3-3)------(3-3)-------(3-3)----(3-3)--------------------------------| 
G|---------------------------------------------------------------------------| 
D|---------------------------------------------------------------------------| 
A|--1-1---------1----------1---------1---------------------------------------| 
E|---------------------------------------------------------------------------| 

verse 2  
	  

Search Paypal
auto scroll beats size up size down change color hide chords simplify chords drawings columns
tab show chords e-chords YouTube Clip e-chords hide all tabs e-chords go to top tab