Bibio

Take Off Your Shirt Chords

Bibio

Difficulty: nolevelnolevel

by robepoiel

tuner correct add songbook print version text version save to e-mail
chordsukuleleukulelecavacokeyboardtabbassdrumsharmonicsflute Guitar Pro
close

there isn't a video lesson for this song

chords

Take Off Your Shirt

  		
Intro 

e |-------------------------------------------------------------| 
b |-------------------------------------------------------------| 
g |-x-xx-x-xx-xxx-x-xx-x-xx-xxx-x-xx-x-xx-xxx-x-xx-x-xx-xxx-----| 
d |-9-99-9-99-999-7-77-7-77-777-5-55-5-55-555-5-55-5-55-555-5/9-| 
a |-9-99-9-99-999-7-77-7-77-777-5-55-5-55-555-5-55-5-55-555-----| 
E |-7-77-7-77-777-5-55-5-55-555-3-33-3-33-333-3-33-3-33-333-----| 

verse 1/Chorus: Gtr. 1 (0:08) 

e |-----------------------------------| 
b |-----------------------------------| 
g |-99--55---------------55-----------| 
d |-99--55--555/77---22--55--555/77---|    X12 
a |-77--33--555/77---22--33--555/77---| 
E |---------333/55---00------333/55---| 

verse 1/Chorus: Gtr. 2 (0:12)      

e |--------------------------------| 
b |--------------------------------| 
g |99--55---00h22-------55---00h22-|   X11 
d |------------------22------------| 
a |--------------------------------| 
E |--------------------------------| 

verse 2: Gtr. 1 (1:12) 

e |---------------------------------------------------| 
b |---------------------------------------------------| 
g |---------------------------------------------------| 
d |-22-2--22-2--55-5--55-5--77-7--77-7--55-5--55-5----|   X 3 
a |-22-2--22-2--55-5--55-5--77-7--77-7--55-5--55-5----| 
E |-00-0--00-0--33-3--33-3--55-5--55-5--33-3--33-3-7\-| 

e |---------------------------------------------------| 
b |---------------------------------------------------| 
g |-------------55-5--55-5----------------------------| 
d |-22-2--22-2--55-5--55-5--77-7--77-7--55-5--55-5----|   X 2 
a |-22-2--22-2--33-3--33-3--77-7--77-7--55-5--55-5----| 
E |-00-0--00-0--------------55-5--55-5--33-3--33-3----| 

verse 2: Gtr. 2 (1:33) 

e |-1212-12--1212-12--1212-12--1212-12--1212-12--1212-12--1212-12--1212-10~~-| 
b |--------------------------------------------------------------------------| 
g |--------------------------------------------------------------------------| 
d |--------------------------------------------------------------------------| 
a |--------------------------------------------------------------------------| 
E |--------------------------------------------------------------------------| 

e |-1212-12--1212-10~~-| 
b |--------------------| 
g |--------------------| 
d |--------------------|   X8 
a |--------------------| 
E |--------------------| 

Breakdown/Chorus (2:07) 

e |------------------------| 
b |------------------------| 
g |-------55-5-------------| 
d |-22-2--55-5--55-5--77-7-|   X6 
a |-22-2--33-3--55-5--77-7-| 
E |-00-0--------33-3--55-5-| 

Bridge (2:38) 

e |--------------------------| 
b |--------------------------| 
g |---4--4--3--3--2--2-------|   X14 
d |--4--4--3--3--2--2--3--3--| 
a |-2--2--3--3--2--2--3--3---| 
E |-0-----------------1--1---| 

 
	  

auto scroll beats size up size down change color hide chords simplify chords drawings columns
tab show chords e-chords YouTube Clip e-chords hide all tabs e-chords go to top tab

share with facebook

Search Paypal