Benjamin Booker

Slow Coming

Benjamin Booker

chords

by  ADALGOMES

save to print version add songbook text version e-mail correct tuner
chordsukulelecavacokeyboardtabbassdrumsharmonicaflute Guitar Pro
close

there isn't a video lesson for this song

chords

Slow Coming

	  		Intro 

e|---------------------------------------------------------------------------| 
B|------------7p5-----7-------------9--10--9---------------------------------| 
G|--6----6----------------7----7---------------------------------------------|  6x 
D|---------------------------------------------------------------------------|        
A|--7--7---7-------7------9--9---9--9--9--9----------------------------------| 
E|---------------------------------------------------------------------------| 

Chorus  

e|--x--x--x--x----x--x--x--x--x--x--x--x--x--x--x--x--x--x----------------------------------------| 
B|--5--5--5--5----7--7--7--7--7--6--5--5--5--5--5--6--7--7----------------------------------------| 
G|--6--6--6--6----7--7--7--7--7--6--5--6--6--6--6--7--8--7----------------------------------------| 
D|--7--7--7--7----7--7--7--7--7--6--5--7--7--7--7--8--9--7----------------------------------------| 
A|--7--7--7--7----9--9--9--9--9--8--7--7--7--7--7--8--9--9----------------------------------------| 
E|--x--x--x--x----x--x--x--x--x--x--x--x--x--x--x--x--x--x----------------------------------------|  
		  

See also:

chords Deep Purple - Child in time chords Ira! - N˙cleo Base chords Deep Purple - Lazy/new chords chords Ira! - Tarde Vazia chords Deep Purple - Smoke on the water chords Ira! - Pošo de Sensibilidade (ver. 2)
e-chords

Other versions:

chords Benjamin Booker - Slow Coming
auto scroll beats size up size down change color hide chords simplify chords drawings columns
tab show chords e-chords YouTube Clip e-chords hide all tabs e-chords go to top tab

share