Ben Harper

home > Ben Harper

Sexual Healing (ver. 2) Chords

Ben Harper

Difficulty: EasyEasy

by nobrupacifico

tuner correct add songbook print version text version save to e-mail
chordsukulelecavacokeyboardtabbassdrumsharmonicsflute Guitar Pro
chords

Sexual Healing (ver. 2)

  		Riff 1 
    G	 Am   Am/F C 
e|--3----0----0----0-------------------| 
B|--0----1----1----1-------------------| 
G|--0----2----2----0-------------------| 
D|--0----2----3----2------0h2-0--------| 
A|--2----0----0----3--0h3-------3p0----| 
E|--3----0----0----0----------------3--| 

Riff 2 
    G	 Am 
e|--3----0------------| 
B|--0----1------------| 
G|--0----2---------0--| 
D|--0----2---0-2-3----| 
A|--2----0------------| 
E|--3----0------------| 

Riff 3 
    C		Em   F 
e|--0-----------0----1-----------| 
B|--1-----------0----1-----------| 
G|--0-----------0----2--------0--| 
D|--2----0h2-2--2----3--0-2-3----| 
A|--3--------2--2----3-----------| 
E|--0-----------0----1-----------| 

Final 
    G   Am 
e|--3---0--| 
B|--0---1--| 
G|--0---2--| 
D|--0---2--| 
A|--2---0--| 
E|--3---0--| 


RIFF 1 
Oh baby now let's get down tonight 

Baby, I'm hot just like your oven 
and I need your lovin' 
and, baby, I can't hold it much longer 
oh it's getting stronger and stronger 
And when I get this feeling I need sexual healing 

Sexual healing 
It makes me feel so fine 
It helps to relieve the mind 
RIFF 2 
Sexual healing is something that is so very good for me 

RIFF 3 
Whenever these blue tear drops are falling, oh no 
And my emotional stability is leaving me 
Oh there is something I can do 
Oh I can get on the telephone and call you up baby 
Darling I know you'll be there to relieve me 
The love you give to me will free me 
so if you don't know the things you're dealing 
Well I can tell you darling, oh it's sexual healing 

RIFF 1 
Get up, get up, get up, get up 
Let's make love tonight 
Wake up, wake up, wake up, wake up 
'Cause you do it right 

Heal me, my darling 
Heal me, my darling 
Heal me, my darling 
Heal me, my darling 

Baby, you now i got sick this morning 
Well a sea was storming up inside of me 
Baby, I think I'm capsizing 
All the waves are rising 
And when I get this feeling i want sexual healing 

Sexual healing 
It makes me feel so fine, it's such a rush 
It helps to relieve the mind, Lord it's good for us 

Sexual healing, is good for me 
RIFF 2 
Sexual healing is something so so good for me 

RIFF 3 
Oh itís good for us, oh it's so good to me 
My baby Whoahohh woah 

Just grab a hold 
Come take control 
Of my body and mind 
Soon we'll be making love 
Honey, we'll be doin' fine 
You're my medicine open up and let me in 

Oh Darling darling, you're so great 
I can't wait for you to operate 

RIFF 1 
heal me my darling 
I can't wait for you to operate 
heal my darling 
I canít wait for you to operate 
I canít wait for you to heal me, 

I canít wait for you to, 
Oh baby whenever these blue teardrops are falling, 
You know I'll come calling 

FINAL 
Heal me, my darling
	  

Full key step upFull key step up
Half key step upHalf key step up
Half key step downHalf key step down
Full key step downFull key step down
Search Paypal
auto scroll beats size up size down change color hide chords simplify chords drawings columns
tab show chords e-chords YouTube Clip e-chords hide all tabs e-chords go to top tab