Being As An Ocean

Sleeping Sicarii

Being As An Ocean

chords

by  FERNSANTANA

save to print version add songbook text version e-mail correct tuner
chordsukulelecavacokeyboardtabbassdrumsharmonicaflute Guitar Pro
close

there isn't a video lesson for this song

chords

Sleeping Sicarii

	  		
Intro:
e|---------------------------------------------------------------------------| 
B|---------------------------------------------------------------------------| 
G|---------------------------------------------------------------------------| 
D|---------------------------------------------------------------------------| 
A|---------------------------------------------------------------------------| 
D|--0--13--12--0--12--0--0--0--0--10--12--10--12--0--10--12------------------| 

e|---------------------------------------------------------------------------|  
B|---------------------------------------------------------------------------| 
G|---------------------------------------------------------------------------| 
D|---------------------------------------------------------------------------| 
A|---------------------------------------------------------------------------| 
D|--12--13--12--10--12--0--0--0--0--10--0--10--12--0--10--12----------------| 

e|---------------------------------------------------------------------------| 
B|---------------------------------------------------------------------------| 
G|---------------------------------------------------------------------------| 
D|---------------------------------------------------------------------------| 
A|---------------------------------------------------------------------------| 
D|--0--13--12--0--12--0--0--0--0--10--0--10--12--10--12----------------------| 

e|---------------------------------------------------------------------------| 
B|---------------------------------------------------------------------------| 
G|---------------------------------------------------------------------------| 
D|---------------------------------------------------------------------------| 
A|---------------------------------------------------------------------------| 
D|--12--13--12--10--12--0--0--0--0--10--0--10--12--0--10--12-----------------| 

Verse 
e|---------------------------------------------------------------------------| 
B|---------------------------------------------------------------------------| 
G|------------5------------------5----------5--------------------------------| 
D|-------7--------7----------7-------7--7------7-7---------------------------| 
A|---5-------------------5---------------------------------------------------| 
D|---------------------------------------------------------------------------| 

e|---------------------------------------------------------------------------| 
B|---------------------------------------------------------------------------| 
G|-----------2--------------------3--------3--3--3--2------------------------| 
D|-------5-------5------------5------5--5--------------5---------------------| 
A|---------------------------------------------------------------------------| 
D|---3--------------------5--------------------------------------------------| 

                     Strum The Next Part 
 Chorus 
e|---------------------------------------------------------------------------| 
B|---------------------------------------------------------------------------| 
G|--10-12--14-----10-12--14--9----10-12--14-----10-12--9---------------------| 
D|---------------------------------------------------------------------------|X2 
A|--8--10--12-----8--10--12--7----8--10--12-----8--10--7---------------------| 
D|---------------------------------------------------------------------------| 
                        Tremolo Pick 
Bridge  
e|---------------------------------------------------------------------------| 
B|-----6-------10------------5-----------------------------------------------| 
G|---------------------------------------------------------------------------| 
D|---------------------------------------------------------------------------| 
A|---------------------------------------------------------------------------| 
D|---------------------------------------------------------------------------| 

Buildup 
e|---------------------------------------------------------------------------| 
B|---------------------------------------------------------------------------| 
G|----7-----7----------7----7------7--7--7-----------------------------------| 
D|-------------x---------------x---------------------------------------------| 
A|----5-----5--x-------5----5--x---5--5--5-----------------------------------| 
D|-------------x---------------x---------------------------------------------| 

e|---------------------------------------------------------------------------| 
B|---------------------------------------------------------------------------| 
G|---------------------------------------------------------------------------| 
D|---8-----8--x---------8----8--x--5--5--5-----------------------------------| 
A|---10----10-x---------10---10-x--7--7--7-----------------------------------| 
D|------------x-----------------x--------------------------------------------| 

e|---------------------------------------------------------------------------| 
B|---------------------------------------------------------------------------| 
G|--5-/7--7------5-/7--7--------7--7--7--------------------------------------| 
D|-----------x-------------x-------------------------------------------------| 
A|--3-/5--5--x---3-/5--5---x----5--5--5--------------------------------------| 
D|-----------x-------------x-------------------------------------------------| 

e|---------------------------------------------------------------------------| 
B|---------------------------------------------------------------------------| 
G|---------------------------------------------------------------------------| 
D|---8-----8--x---------8----8--x--5--5--5-----------------------------------| 
A|---10----10-x---------10---10-x--7--7--7-----------------------------------| 
D|------------x-----------------x--------------------------------------------| 

Breakdown 
e|---------------------------------------------------------------------------| 
B|---------------------------------------------------------------------------| 
G|---------------------------------------------------------------------------| 
D|----------0-7--------------------------------------------------------------| 
A|---------------------------------------------------------------------------| 
D|--0--PM0-------8----8----8---8----5----5--5--------------------------------| 
            
 I Could Only Hear This For The Solo Before It Gets Drowned Out By The Rhythm 
                  Repeat Chorus And Do Breakdown Again 

Part Of The Solo 
e|---------------------------------------------------------------------------| 
B|---------------------------------------------------------------------------| 
G|----------------------7----------7--7/10-----------------------------------| 
D|--------5-----5/7--7---------5/7-----------12--12--------------------------| 
A|--5--8-----8---------------------------------------------------------------| 
D|---------------------------------------------------------------------------| 


Thanks For Checking Out The Tab 
Send Me A Tab Suggestion 

************************************ 

| x   Dead note 
| g   Grace note 
| (n) Ghost note 
| h   Hammer-on 
| p   Pull-off 
| r   Release 
| >   Accented note 
| t   Tapping 
| b   Bend 
| br  Bend release 
| pb  Pre-bend 
| pbr Pre-bend release 
| /   Slide up 
| \   Slide down 
| ~   Vibrato 
| s   Slap 
| P   Pop 
| PM  Palm mute 
| TR  Trill 
| N   Tremolo 

************************************ 
		  

See also:

chords Bob Dylan - All Along The Watchtower chords R.E.M. - Losing my religion chords Guns N' Roses - Sweet Child O' Mine chords Elvis Presley - Can't Help Falling In Love chords John Mayer - Gravity chords Bob Dylan - Knockin On Heaven's Door
e-chords

Other versions:

chords Being As An Ocean - Sleeping Sicarii
auto scroll beats size up size down change color hide chords simplify chords drawings columns
tab show chords e-chords YouTube Clip e-chords hide all tabs e-chords go to top tab

share