Alarmes

Cada Um Por Si

Alarmes

chords Beginner beginner

by  PAULANTUNES

save to print version add songbook text version e-mail correct tuner
chordsukulelecavacokeyboardtabbassdrumsharmonicaflute Guitar Pro
close

there isn't a video lesson for this song

chords

Cada Um Por Si

	  		
E 
    Vejo  
G         A               E               G    A 
    Seu desejo me consumir 
       E                             G   A      E 
    E todo o desespero do seu corpo falando por ti  
    E 
    Sinto  
G   A           E          G  A 
    O seu peito sobre mim  
       E                     G       A        E 
    E o seu toque eu já nem guio, eu deixo fluir 
  
           E 
Pra depois sermos estranhos 
      G         A      E 
E vivermos cada um por si 

Riff 2 
E|--------------------------------------------------| 
B|--------------------------------------------------| 
G|--------------------------------------------------| 
D|---------9---9---9---9---------9-7-5---7-5--------| 
A|--2------10--10--10--10---2----------------7------| 
E|--0-----------------------0-----------------------| 

Riff 3 
E|---------------------------------------------------------------| 
B|---------------------------------------------------------------| 
G|--1~------9~---------------------------------------------------| 
D|--2~------8~--------9-7------------5------9-7--------5/7--5/7--| 
A|--2~------7~------------10-7-5-5-7---7--------10-7-5/7--5/7----| 
E|--0~------0~------0---------------------0----------------------| 

Solo 
E|---3-0---0-----------------------------------------------| 
B|---3-0-0---3/5-0-----3--------2-0---0-------0------------| 
G|-----------------2/4---4-2-0--2-0-0---2/4-0---2-0--------| 
D|----------------------------------------------2-0--2-----| 
A|---------------------------------------------------2-----| 
E|---------------------------------------------------------| x3 

E|---12-----15-----17-----15-------12-----15-----12-----|    
B|---15b16--18b19--20b21--18b19----15b16--18b19--15b16--|    
G|------------------------------------------------------| 
D|------------------------------------------------------| 
A|------------------------------------------------------| 
E|------------------------------------------------------| 

E|---3-0---0-----------------------------------------------| 
B|---3-0-0---3/5-0-----3--------2-0---0-------0------------| 
G|-----------------2/4---4-2-0--2-0-0---2/4-0---2-0--------| 
D|----------------------------------------------2-0--2-----| 
A|---------------------------------------------------2-----| 
E|---------------------------------------------------------| 
		  

Full key step upFull key step up
Half key step upHalf key step up
Half key step downHalf key step down
Full key step downFull key step down
hide glossary

See also:

chords Jota Quest - Só Hoje chords Nando Reis - De Janeiro A Janeiro chords Lulu Santos - Como uma onda no mar chords Legião Urbana - Eduardo E Mônica chords Nando Reis - Pra Você Guardei O Amor chords Legião Urbana - Pais e Filhos
e-chords

Other versions:

chords Ultraje a Rigor - Cada um por Si chords Alarmes - Cada Um Por Si
auto scroll beats size up size down change color hide chords simplify chords drawings columns
tab show chords e-chords YouTube Clip e-chords hide all tabs e-chords go to top tab

share