A Day to Remember

Best Of Me

A Day to Remember

chords Expert expert

by  ABELAMIN

save to print version add songbook text version e-mail correct tuner
chordsukulelecavacokeyboardtabbassdrumsharmonicaflute Guitar Pro
close

there isn't a video lesson for this song

chords

Best Of Me

	  		


Guitar 1 

                 PM PM PM       PM                                 
              E  E  E  E  E  E  E  E     E  E  E  E  E  E  E  E    
C#||-------|--------------7--L--L-----|--------------------------| 
G#||-------|-----5--L--5-----8--L--8--|--------------------------| 
E ||-------|--------7--L--------9-----|-----5--5-----5--5-----5--| 
B ||-------|--------------------------|-----2--2-----2--2-----2--| 
F#||-------|--------------------------|-----0--0-----0--0-----0--| 
B ||-------|--------------------------|--------------------------| 


  E  E  E  E  E  E  E  E     E  E  E  E  E  E  E  E    
--------------------------|--------------------------| 
--------------------------|--------------------------| 
-----5--5-----5--5-----5--|-----5--5-----5--5-----5--| 
-----2--2-----2--2-----2--|-----3--3-----3--3-----3--| 
-----0--0-----0--0-----0--|-----3--3-----3--3-----3--| 
--------------------------|--------------------------| 


     PM PM PM       PM                                 
  E  E  E  E  E  E  E  E     E  E  E  E  E  E  E  E    
--------------7--L--L-----|--------------------------| 
-----5--L--5-----8--L--8--|--------------------------| 
--------7--L--------9-----|-----5--5-----5--5-----5--| 
--------------------------|-----2--2-----2--2-----2--| 
--------------------------|-----0--0-----0--0-----0--| 
--------------------------|--------------------------| 


  E  E  E  E  E  E  E  E     E  E  E  E  E  E  E  E    
--------------------------|--------------------------| 
--------------------------|--------------------------| 
-----5--5-----5--5-----5--|-----5--5-----5--5-----5--| 
-----2--2-----2--2-----2--|-----3--3-----3--3-----3--| 
-----0--0-----0--0-----0--|-----3--3-----3--3-----3--| 
--------------------------|--------------------------| 


     PM PM PM       PM                                 
  E  E  E  E  E  E  E  E     E  E  E  E  E  E  E  E    
--------------7--L--L-----|--------------------------| 
-----5--L--5-----8--L--8--|--------------------------| 
--------7--L--------9-----|-----5--5-----5--5-----5--| 
--------------------------|-----2--2-----2--2-----2--| 
--------------------------|-----0--0-----0--0-----0--| 
--------------------------|--------------------------| 


  E  E  E  E  E  E  E  E     E  E  E  E  E  E  E  E    
--------------------------|--------------------------| 
--------------------------|--------------------------| 
-----5--5-----5--5-----5--|-----5--5-----5--5-----5--| 
-----2--2-----2--2-----2--|-----3--3-----3--3-----3--| 
-----0--0-----0--0-----0--|-----3--3-----3--3-----3--| 
--------------------------|--------------------------| 


  E  E  E  E  E  E  E  E     E  E  E  E  E  E  E  E    
--------------------------|--------------------------| 
--------------------------|--------------------------| 
-----4--4-----4--4-----4--|-----5--5-----5--5-----5--| 
-----5--5-----5--5-----5--|-----2--2-----2--2-----2--| 
-----5--5-----5--5-----5--|-----0--0-----0--0-----0--| 
--------------------------|--------------------------| 


  E  E  E  E  E  E  E  E     E  E  E  E  E  E  E  E    
--------------------------|--------------------------| 
--------------------------|--------------------------| 
-----5--5-----5--5-----5--|-----5--5-----5--5-----5--| 
-----2--2-----2--2-----2--|-----3--3-----3--3-----3--| 
-----0--0-----0--0-----0--|-----3--3-----3--3-----3--| 
--------------------------|--------------------------| 


  E  E  E  E  E  E  E  E     E  E  E  E  E  E  E  E    
--------------------------|--------------------------| 
--------------------------|--------------------------| 
-----4--4-----4--4-----4--|-----5--5-----5--5-----5--| 
-----5--5-----5--5-----5--|-----2--2-----2--2-----2--| 
-----5--5-----5--5-----5--|-----0--0-----0--0-----0--| 
--------------------------|--------------------------| 


  E  E  E  E  E  E  E  E     E  E  E  E  E  E  E  E    
--------------------------|--------------------------| 
--------------------------|--------------------------| 
-----5--5-----5--5-----5--|-----5--5-----5--5-----5--| 
-----2--2-----2--2-----2--|-----3--3-----3--3-----3--| 
-----0--0-----0--0-----0--|-----3--3-----3--3-----3--| 
--------------------------|--------------------------| 


  E  E  E  E  E  E  E  E     E  E  E  E  E  E  E  E    
--------------------------|--------------------------| 
--------------------------|--------------------------| 
-----4--4-----4--4-----4--|-----5--5-----5--5-----5--| 
-----5--5-----5--5-----5--|-----3--3-----3--3-----3--| 
-----5--5-----5--5-----5--|-----3--3-----3--3-----3--| 
--------------------------|--------------------------| 


  E  E  E  E  E  E  E  E     E  E  E  E  E  E  E  E    
--------------------------|--------------------------| 
--------------------------|--------------------------| 
-----5--5-----5--5-----5--|-----2--2-----2--2-----2--| 
-----3--3-----3--3-----3--|-----3--3-----3--3-----3--| 
-----3--3-----3--3-----3--|-----5--5-----5--5-----5--| 
--------------------------|--------------------------| 


  E  E  E  E  E  E  E  E     W                   W                  
--------------------------|-------------------|-------------------| 
--------------------------|-------------------|-------------------| 
-----4--4-----4--4-----4--|-------------------|-------------------| 
-----5--5-----5--5-----5--|-------------------|-------------------| 
-----5--5-----5--5-----5--|--3----------------|--L----------------| 
--------------------------|-------------------|-------------------| 


  W                   W                   W                   W                  
-------------------|-------------------|-------------------|-------------------| 
-------------------|-------------------|-------------------|-------------------| 
-------------------|-------------------|-------------------|-------------------| 
-------------------|-------------------|-------------------|-------------------| 
--0----------------|-------------------|--3----------------|--L----------------| 
-------------------|--5----------------|-------------------|-------------------| 


  PM PM PM PM PM PM PM PM    PM PM PM PM               
  E  E  E  E  E  E  E  E     E  E  E  E  E  E  E  E    
--------------------------|--------------------------| 
--------------------------|--------------------------| 
--2--2--2--2--2--2--2--2--|--------------------------| 
--2--2--2--2--2--2--2--2--|--5--5--5--5--0--0--0--0--| 
--0--0--0--0--0--0--0--0--|--5--5--5--5--2--2--2--2--| 
--------------------------|--5--5--5--5--5--5--5--5--| 


  E  E  E  E  E  E  E  E     E  E  E  E  E  E  E  E    
--------------------------|--------------------------| 
--------------------------|--------------------------| 
--------------------------|--------------------------| 
--7--7--7--7--7--7--7--7--|--7--7--7--7--7--7--7--7--| 
--7--7--7--7--7--7--7--7--|--7--7--7--7--7--7--7--7--| 
--7--7--7--7--7--7--7--7--|--7--7--7--7--7--7--7--7--| 


  E  E  E  E  E  E  E  E     E  E  E  E  E  E  E  E    
--------------------------|--------------------------| 
--------------------------|--------------------------| 
--------------------------|--------------------------| 
--3--3--3--3--3--3--3--3--|--5--5--5--5--5--5--5--5--| 
--3--3--3--3--3--3--3--3--|--5--5--5--5--5--5--5--5--| 
--3--3--3--3--3--3--3--3--|--5--5--5--5--5--5--5--5--| 


  E  E  E  E  E  E  E  E     E  E  E  E  E  E  E  E    
--------------------------|--------------------------| 
--------------------------|--------------------------| 
--------------------------|--------------------------| 
--7--7--7--7--7--7--7--7--|--7--7--7--7--7--7--7--7--| 
--7--7--7--7--7--7--7--7--|--7--7--7--7--7--7--7--7--| 
--7--7--7--7--7--7--7--7--|--7--7--7--7--7--7--7--7--| 


  E  E  E  E  E  E  E  E     E  E  E  E  E  E  E  E    
--------------------------|--------------------------| 
--------------------------|--------------------------| 
--------------------------|--------------------------| 
--3--3--3--3--3--3--3--3--|--5--5--5--5--5--5--5--5--| 
--3--3--3--3--3--3--3--3--|--5--5--5--5--5--5--5--5--| 
--3--3--3--3--3--3--3--3--|--5--5--5--5--5--5--5--5--| 


  E  E  E  E  E  E  E  E     E  E  E  E  E  E  E  E    
--------------------------|--------------------------| 
--------------------------|--------------------------| 
--------------------------|--------------------------| 
--7--7--7--7--7--7--7--7--|--7--7--7--7--7--7--7--7--| 
--7--7--7--7--7--7--7--7--|--7--7--7--7--7--7--7--7--| 
--7--7--7--7--7--7--7--7--|--7--7--7--7--7--7--7--7--| 


  E  E  E  E  E  E  E  E     E  E  E  E  E  E  E  E    
--------------------------|--------------------------| 
--------------------------|--------------------------| 
--------------------------|--------------------------| 
--3--3--3--3--3--3--3--3--|--5--5--5--5--5--5--5--5--| 
--3--3--3--3--3--3--3--3--|--5--5--5--5--5--5--5--5--| 
--3--3--3--3--3--3--3--3--|--5--5--5--5--5--5--5--5--| 


  E  E  E  E  E  E  E  E     E  E  E  E  E  E  E  E    
--------------------------|--------------------------| 
--------------------------|--------------------------| 
--------------------------|--------------------------| 
--3--3--3--3--3--3--3--3--|--3--3--3--3--3--3--3--3--| 
--3--3--3--3--3--3--3--3--|--3--3--3--3--3--3--3--3--| 
--3--3--3--3--3--3--3--3--|--3--3--3--3--3--3--3--3--| 


  E  E  E  E  E  E  E  E     E  E  E  E  E  E  E  E    
--------------------------|--------------------------| 
--------------------------|--------------------------| 
--------------------------|--------------------------| 
--0--0--0--0--0--0--0--0--|--5--5--5--5--5--5--5--5--| 
--0--0--0--0--0--0--0--0--|--5--5--5--5--5--5--5--5--| 
--0--0--0--0--0--0--0--0--|--5--5--5--5--5--5--5--5--| 


                                        PM PM PM PM                              
  Q    Q     E  E  E  S S    Q    Q     E  E  E  E     Q    Q     E  E  E  S S   
--------------------------|-------------------------|--------------------------| 
--------------------------|-------------------------|--------------------------| 
--------------------------|-------------------------|--------------------------| 
--7----L\----x--x-----x-x-|--7----L\----3--3--3--3--|--7----L\----x--x-----x-x-| 
--7----L\----x--x-----x-x-|--7----L\----3--3--3--3--|--7----L\----x--x-----x-x-| 
--7----L\----x--x-----x-x-|--7----L\----3--3--3--3--|--7----L\----x--x-----x-x-| 


                                PM PM PM PM PM PM PM   
  E  E  E  E  E  E  E  E     E  E  E  E  E  E  E  E    
--------------------------|--------------------------| 
--------------------------|--------------------------| 
--------------------------|-----5--5--5--5--5--5--5--| 
-----------5--5--0--------|-----2--2--2--2--2--2--2--| 
--------------------7--7--|-----0--0--0--0--0--0--0--| 
--3--3--3-----------------|--------------------------| 


  PM PM PM PM PM PM PM PM    PM PM PM PM PM PM PM PM   
  E  E  E  E  E  E  E  E     E  E  E  E  E  E  E  E    
--------------------------|--------------------------| 
--------------------------|--------------------------| 
--5--5--5--5--5--5--5--5--|--5--5--5--5--5--5--5--5--| 
--2--2--2--2--2--2--2--2--|--2--3--3--3--3--3--3--3--| 
--0--0--0--0--0--0--0--0--|--0--3--3--3--3--3--3--3--| 
--------------------------|-----3--3--3--3--3--3--3--| 


  PM PM PM PM PM PM PM PM    PM PM PM PM PM PM PM PM   
  E  E  E  E  E  E  E  E     E  E  E  E  E  E  E  E    
--------------------------|--------------------------| 
--------------------------|--------------------------| 
--5--4--4--4--4--4--4--4--|--4--5--5--5--5--5--5--5--| 
--3--5--5--5--5--5--5--5--|--5--2--2--2--2--2--2--2--| 
--3--5--5--5--5--5--5--5--|--5--0--0--0--0--0--0--0--| 
--3-----------------------|--------------------------| 


  PM PM PM PM PM PM PM PM    PM PM PM PM PM PM PM PM   
  E  E  E  E  E  E  E  E     E  E  E  E  E  E  E  E    
--------------------------|--------------------------| 
--------------------------|--------------------------| 
--5--5--5--5--5--5--5--5--|--5--5--5--5--5--5--5--5--| 
--2--2--2--2--2--2--2--2--|--2--3--3--3--3--3--3--3--| 
--0--0--0--0--0--0--0--0--|--0--3--3--3--3--3--3--3--| 
--------------------------|-----3--3--3--3--3--3--3--| 


  PM PM PM PM                                          
  E  E  E  E  E  E  E  E     E  E  E  E  E  E  E  E    
--------------------------|--------------------------| 
--------------------------|--------------------------| 
--5--4--4--4--4--4--4--4--|-----5--5-----5--5-----5--| 
--3--5--5--5--5--5--5--5--|-----2--2-----2--2-----2--| 
--3--5--5--5--5--5--5--5--|-----0--0-----0--0-----0--| 
--3-----------------------|--------------------------| 


  E  E  E  E  E  E  E  E     E  E  E  E  E  E  E  E    
--------------------------|--------------------------| 
--------------------------|--------------------------| 
-----5--5-----5--5-----5--|-----5--5-----5--5-----5--| 
-----2--2-----2--2-----2--|-----3--3-----3--3-----3--| 
-----0--0-----0--0-----0--|-----3--3-----3--3-----3--| 
--------------------------|--------------------------| 


  E  E  E  E  E  E  E  E     E  E  E  E  E  E  E  E    
--------------------------|--------------------------| 
--------------------------|--------------------------| 
-----4--4-----4--4-----4--|-----5--5-----5--5-----5--| 
-----5--5-----5--5-----5--|-----3--3-----3--3-----3--| 
-----5--5-----5--5-----5--|-----3--3-----3--3-----3--| 
--------------------------|--------------------------| 


  E  E  E  E  E  E  E  E     E  E  E  E  E  E  E  E    
--------------------------|--------------------------| 
--------------------------|--------------------------| 
-----5--5-----5--5-----5--|-----2--2-----2--2-----2--| 
-----3--3-----3--3-----3--|-----3--3-----3--3-----3--| 
-----3--3-----3--3-----3--|-----5--5-----5--5-----5--| 
--------------------------|--------------------------| 


  E  E  E  E  E  E  E  E     W                   W                  
--------------------------|-------------------|-------------------| 
--------------------------|-------------------|-------------------| 
-----4--4-----4--4-----4--|-------------------|-------------------| 
-----5--5-----5--5-----5--|-------------------|-------------------| 
-----5--5-----5--5-----5--|--3----------------|--L----------------| 
--------------------------|-------------------|-------------------| 


  W                   W                   W                   W                  
-------------------|-------------------|-------------------|-------------------| 
-------------------|-------------------|-------------------|-------------------| 
-------------------|-------------------|-------------------|-------------------| 
-------------------|-------------------|-------------------|-------------------| 
--0----------------|-------------------|--3----------------|--L----------------| 
-------------------|--5----------------|-------------------|-------------------| 


  PM PM PM PM PM PM PM PM    PM PM PM PM               
  E  E  E  E  E  E  E  E     E  E  E  E  E  E  E  E    
--------------------------|--------------------------| 
--------------------------|--------------------------| 
--2--2--2--2--2--2--2--2--|--------------------------| 
--2--2--2--2--2--2--2--2--|--5--5--5--5--0--0--0--0--| 
--0--0--0--0--0--0--0--0--|--5--5--5--5--2--2--2--2--| 
--------------------------|--5--5--5--5--5--5--5--5--| 


  E  E  E  E  E  E  E  E     E  E  E  E  E  E  E  E    
--------------------------|--------------------------| 
--------------------------|--------------------------| 
--------------------------|--------------------------| 
--7--7--7--7--7--7--7--7--|--7--7--7--7--7--7--7--7--| 
--7--7--7--7--7--7--7--7--|--7--7--7--7--7--7--7--7--| 
--7--7--7--7--7--7--7--7--|--7--7--7--7--7--7--7--7--| 


  E  E  E  E  E  E  E  E     E  E  E  E  E  E  E  E    
--------------------------|--------------------------| 
--------------------------|--------------------------| 
--------------------------|--------------------------| 
--3--3--3--3--3--3--3--3--|--5--5--5--5--5--5--5--5--| 
--3--3--3--3--3--3--3--3--|--5--5--5--5--5--5--5--5--| 
--3--3--3--3--3--3--3--3--|--5--5--5--5--5--5--5--5--| 


  E  E  E  E  E  E  E  E     E  E  E  E  E  E  E  E    
--------------------------|--------------------------| 
--------------------------|--------------------------| 
--------------------------|--------------------------| 
--7--7--7--7--7--7--7--7--|--7--7--7--7--7--7--7--7--| 
--7--7--7--7--7--7--7--7--|--7--7--7--7--7--7--7--7--| 
--7--7--7--7--7--7--7--7--|--7--7--7--7--7--7--7--7--| 


  E  E  E  E  E  E  E  E     E  E  E  E  E  E  E  E    
--------------------------|--------------------------| 
--------------------------|--------------------------| 
--------------------------|--------------------------| 
--3--3--3--3--3--3--3--3--|--5--5--5--5--5--5--5--5--| 
--3--3--3--3--3--3--3--3--|--5--5--5--5--5--5--5--5--| 
--3--3--3--3--3--3--3--3--|--5--5--5--5--5--5--5--5--| 


  E  E  E  E  E  E  E  E     E  E  E  E  E  E  E  E    
--------------------------|--------------------------| 
--------------------------|--------------------------| 
--------------------------|--------------------------| 
--7--7--7--7--7--7--7--7--|--7--7--7--7--7--7--7--7--| 
--7--7--7--7--7--7--7--7--|--7--7--7--7--7--7--7--7--| 
--7--7--7--7--7--7--7--7--|--7--7--7--7--7--7--7--7--| 


  E  E  E  E  E  E  E  E     E  E  E  E  E  E  E  E    
--------------------------|--------------------------| 
--------------------------|--------------------------| 
--------------------------|--------------------------| 
--3--3--3--3--3--3--3--3--|--5--5--5--5--5--5--5--5--| 
--3--3--3--3--3--3--3--3--|--5--5--5--5--5--5--5--5--| 
--3--3--3--3--3--3--3--3--|--5--5--5--5--5--5--5--5--| 


  E  E  E  E  E  E  E  E     E  E  E  E  E  E  E  E    
--------------------------|--------------------------| 
--------------------------|--------------------------| 
--------------------------|--------------------------| 
--3--3--3--3--3--3--3--3--|--3--3--3--3--3--3--3--3--| 
--3--3--3--3--3--3--3--3--|--3--3--3--3--3--3--3--3--| 
--3--3--3--3--3--3--3--3--|--3--3--3--3--3--3--3--3--| 


  E  E  E  E  E  E  E  E     E  E  E  E  E  E  E  E    
--------------------------|--------------------------| 
--------------------------|--------------------------| 
--------------------------|--------------------------| 
--0--0--0--0--0--0--0--0--|--5--5--5--5--5--5--5--5--| 
--0--0--0--0--0--0--0--0--|--5--5--5--5--5--5--5--5--| 
--0--0--0--0--0--0--0--0--|--5--5--5--5--5--5--5--5--| 


                                        PM PM PM PM                              
  Q    Q     E  E  E  S S    Q    Q     E  E  E  E     Q    Q     E  E  E  S S   
--------------------------|-------------------------|--------------------------| 
--------------------------|-------------------------|--------------------------| 
--------------------------|-------------------------|--------------------------| 
--7----L\----x--x-----x-x-|--7----L\----3--3--3--3--|--7----L\----x--x-----x-x-| 
--7----L\----x--x-----x-x-|--7----L\----3--3--3--3--|--7----L\----x--x-----x-x-| 
--7----L\----x--x-----x-x-|--7----L\----3--3--3--3--|--7----L\----x--x-----x-x-| 


  E  E  E  E  E  E  E  E     E  E  E  E  E  E  E  E    
--------------------------|--------------------------| 
--------------------------|--------------------------| 
--------------------------|--------------------------| 
-----------5--5--0--------|--3--3--3--3--3--3--3--3--| 
--------------------7--7--|--3--3--3--3--3--3--3--3--| 
--3--3--3-----------------|--3--3--3--3--3--3--3--3--| 


  E  E  E  E  E  E  E  E     E  E  E  E  E  E  E  E    
--------------------------|--------------------------| 
--------------------------|--------------------------| 
-----------5--5--5--5-----|-----------------------5--| 
--3--3--3--5--5--5--5--7--|--7--7--7--7--7--7--7--5--| 
--3--3--3--3--3--3--3--7--|--7--7--7--7--7--7--7--3--| 
--3--3--3--------------7--|--7--7--7--7--7--7--7-----| 


  E  E  E  E  E  E  E  E     E  E  E  E  E  E  E  E    
--------------------------|--------------------------| 
--------------------------|--------------------------| 
--5--5--5--5--5--5--5--5--|--------------------------| 
--5--5--5--5--5--5--5--5--|--3--3--3--3--3--3--3--3--| 
--3--3--3--3--3--3--3--3--|--3--3--3--3--3--3--3--3--| 
--------------------------|--3--3--3--3--3--3--3--3--| 


  E  E  E  E  E  E  E  E     E  E  E  E  E  E  E  E    
--------------------------|--------------------------| 
--------------------------|--------------------------| 
-----------5--5--5--5-----|--------------------------| 
--3--3--3--5--5--5--5--7--|--7--7--7--7--7--7--7--7--| 
--3--3--3--3--3--3--3--7--|--7--7--7--7--7--7--7--7--| 
--3--3--3--------------7--|--7--7--7--7--7--7--7--7--| 


  E  E  E  E  E  E  E  E     E  E  E  E  E  E  E  E    
--------------------------|--------------------------| 
--------------------------|--------------------------| 
--------------------------|--------------------------| 
--5--5--5--5--5--5--5--3--|--3--3--3--3--3--3--3--3--| 
--5--5--5--5--5--5--5--3--|--3--3--3--3--3--3--3--3--| 
--5--5--5--5--5--5--5--3--|--3--3--3--3--3--3--3--3--| 


  E  E  E  E  E  E  E  E     E  E  E  E  E  E  E  E    
--------------------------|--------------------------| 
--------------------------|--------------------------| 
-----------5--5--5--5-----|-----------------------5--| 
--3--3--3--5--5--5--5--7--|--7--7--7--7--7--7--7--5--| 
--3--3--3--3--3--3--3--7--|--7--7--7--7--7--7--7--3--| 
--3--3--3--------------7--|--7--7--7--7--7--7--7-----| 


  E  E  E  E  E  E  E  E     E  E  E  E  E  E  E  E    
--------------------------|--------------------------| 
--------------------------|--------------------------| 
--5--5--5--5--5--5--5--5--|--------------------------| 
--5--5--5--5--5--5--5--5--|--3--3--3--3--3--3--3--3--| 
--3--3--3--3--3--3--3--3--|--3--3--3--3--3--3--3--3--| 
--------------------------|--3--3--3--3--3--3--3--3--| 


  E  E  E  E  E  E  E  E     W                   W                  
--------------------------|-------------------|-------------------| 
--------------------------|-------------------|-------------------| 
-----------5--5--5--5--5--|--7----------------|--L----------------| 
--3--3--3--5--5--5--5--5--|--7----------------|--L----------------| 
--3--3--3--3--3--3--3--3--|--5----------------|--L----------------| 
--3--3--3-----------------|-------------------|--6----------------| 


  E  E  E  E  E  E  E  E     E  E  E  E  E  E  E  E    
--------------------------|--------------------------| 
--------------------------|--------------------------| 
--------------------------|--------------------------| 
--------------------------|--------------------------| 
--------------------------|--------------------------| 
--7--7--7--7--7--7--7--7--|--7--7--7--7--7--7--7--7--| 


  E  E  E  E  E  E  E  E     E  E  E  E  E  E  E  E    
--------------------------|--------------------------| 
--------------------------|--------------------------| 
--------------------------|--------------------------| 
--------------------------|-----------5--5-----------| 
--------------------------|-----------------5--7--7--| 
--3--3--3--3--3--3--3--3--|--5--5--5-----------------| 


  Q     E  E  E  E  E  E     E  E  E  E  E  E  E  E    
--------------------------|--------------------------| 
--------------------------|--------------------------| 
--------------------------|--------------------------| 
--------7--7--7--7--7--7--|--7--7--7--7--7--7--7--7--| 
--L\----7--7--7--7--7--7--|--7--7--7--7--7--7--7--7--| 
--------7--7--7--7--7--7--|--7--7--7--7--7--7--7--7--| 


  E  E  E  E  E  E  E  E     E  E  E  E  E  E  E  E    
--------------------------|--------------------------| 
--------------------------|--------------------------| 
--------------------------|--------------------------| 
--3--3--3--3--3--3--3--3--|--5--5--5--5--5--5--5--5--| 
--3--3--3--3--3--3--3--3--|--5--5--5--5--5--5--5--5--| 
--3--3--3--3--3--3--3--3--|--5--5--5--5--5--5--5--5--| 


  E  E  E  E  E  E  E  E     E  E  E  E  E  E  E  E    
--------------------------|--------------------------| 
--------------------------|--------------------------| 
--------------------------|--------------------------| 
--7--7--7--7--7--7--7--7--|--7--7--7--7--7--7--7--7--| 
--7--7--7--7--7--7--7--7--|--7--7--7--7--7--7--7--7--| 
--7--7--7--7--7--7--7--7--|--7--7--7--7--7--7--7--7--| 


  E  E  E  E  E  E  E  E     E  E  E  E  E  E  E  E    
--------------------------|--------------------------| 
--------------------------|--------------------------| 
--------------------------|--------------------------| 
--3--3--3--3--3--3--3--3--|--5--5--5--5--5--5--5--5--| 
--3--3--3--3--3--3--3--3--|--5--5--5--5--5--5--5--5--| 
--3--3--3--3--3--3--3--3--|--5--5--5--5--5--5--5--5--| 


  E  E  E  E  E  E  E  E     E  E  E  E  E  E  E  E    
--------------------------|--------------------------| 
--------------------------|--------------------------| 
--------------------------|--------------------------| 
--3--3--3--3--3--3--3--3--|--3--3--3--3--3--3--3--3--| 
--3--3--3--3--3--3--3--3--|--3--3--3--3--3--3--3--3--| 
--3--3--3--3--3--3--3--3--|--3--3--3--3--3--3--3--3--| 


  E  E  E  E  E  E  E  E     E  E  E  E  E  E  E  E    
--------------------------|--------------------------| 
--------------------------|--------------------------| 
--------------------------|--------------------------| 
--0--0--0--0--0--0--0--0--|--5--5--5--5--5--5--5--5--| 
--0--0--0--0--0--0--0--0--|--5--5--5--5--5--5--5--5--| 
--0--0--0--0--0--0--0--0--|--5--5--5--5--5--5--5--5--| 


                                        PM PM PM PM                              
  Q    Q     E  E  E  S S    Q    Q     E  E  E  E     Q    Q     E  E  E  S S   
--------------------------|-------------------------|--------------------------| 
--------------------------|-------------------------|--------------------------| 
--------------------------|-------------------------|--------------------------| 
--7----L\----x--x-----x-x-|--7----L\----3--3--3--3--|--7----L\----x--x-----x-x-| 
--7----L\----x--x-----x-x-|--7----L\----3--3--3--3--|--7----L\----x--x-----x-x-| 
--7----L\----x--x-----x-x-|--7----L\----3--3--3--3--|--7----L\----x--x-----x-x-| 


  E  E  E  E  E  E  E  E     E  E  E  E  E  E  E  E     H        Q    Q       
--------------------------|--------------------------|----------------------| 
--------------------------|--------------------------|----------------------| 
--------------------------|--------------------------|----------------------| 
-----------5--5--0--------|-----------5--5--0--------|--7--------L----L\----| 
--------------------7--7--|--------------------7--7--|--7--------L----L\----| 
--3--3--3-----------------|--5--5--5-----------------|--7--------L----L\----| 


-------|| 
-------|| 
-------|| 
-------|| 
-------|| 
-------|| 


Guitar 2 


                 PM PM PM       PM                                 
              E  E  E  E  E  E  E  E     E  E  E  E  E  E  E  E    
C#||-------|--------------3--L--L-----|--------------------------| 
G#||-------|--------0--L-----0--L--5--|-----5--5-----5--5-----5--| 
E ||-------|-----5--L--5--------5-----|-----x--x-----x--x-----x--| 
B ||-------|--------------------------|-----2--2-----2--2-----2--| 
F#||-------|--------------------------|-----0--0-----0--0-----0--| 
B ||-------|--------------------------|--------------------------| 


  E  E  E  E  E  E  E  E     E  E  E  E  E  E  E  E    
--------------------------|--------------------------| 
-----3--3-----3--5-----5--|-----5--5-----5--5-----5--| 
-----x--x-----x--x-----x--|-----5--5-----5--5-----5--| 
-----2--2-----2--2-----2--|-----x--x-----x--x-----x--| 
-----0--0-----0--0-----0--|-----3--3-----3--3-----3--| 
--------------------------|--------------------------| 


     PM PM PM       PM                                 
  E  E  E  E  E  E  E  E     E  E  E  E  E  E  E  E    
--------------3--L--L-----|--------------------------| 
--------0--L-----0--L--5--|-----5--5-----5--5-----5--| 
-----5--L--5--------5-----|-----x--x-----x--x-----x--| 
--------------------------|-----2--2-----2--2-----2--| 
--------------------------|-----0--0-----0--0-----0--| 
--------------------------|--------------------------| 


  E  E  E  E  E  E  E  E     E  E  E  E  E  E  E  E    
--------------------------|--------------------------| 
-----3--3-----3--5-----5--|-----5--5-----5--5-----5--| 
-----x--x-----x--x-----x--|-----5--5-----5--5-----5--| 
-----2--2-----2--2-----2--|-----x--x-----x--x-----x--| 
-----0--0-----0--0-----0--|-----3--3-----3--3-----3--| 
--------------------------|--------------------------| 


     PM PM PM       PM                                 
  E  E  E  E  E  E  E  E     E  E  E  E  E  E  E  E    
--------------3--L--L-----|--------------------------| 
--------0--L-----0--L--5--|-----5--5-----5--5-----5--| 
-----5--L--5--------5-----|-----x--x-----x--x-----x--| 
--------------------------|-----2--2-----2--2-----2--| 
--------------------------|-----0--0-----0--0-----0--| 
--------------------------|--------------------------| 


  E  E  E  E  E  E  E  E     E  E  E  E  E  E  E  E    
--------------------------|--------------------------| 
-----3--3-----3--5-----5--|-----5--5-----5--5-----5--| 
-----x--x-----x--x-----x--|-----5--5-----5--5-----5--| 
-----2--2-----2--2-----2--|-----x--x-----x--x-----x--| 
-----0--0-----0--0-----0--|-----3--3-----3--3-----3--| 
--------------------------|--------------------------| 


  E  E  E  E  E  E  E  E     E  E  E  E  E  E  E  E    
--------------------------|--------------------------| 
-----3--3-----3--5-----5--|-----5--5-----5--5-----5--| 
-----0--0-----0--0-----0--|-----x--x-----x--x-----x--| 
-----0--0-----0--0-----0--|-----2--2-----2--2-----2--| 
--------------------------|-----0--0-----0--0-----0--| 
--------------------------|--------------------------| 


  E  E  E  E  E  E  E  E     E  E  E  E  E  E  E  E    
--------------------------|--------------------------| 
-----3--3-----3--5-----5--|-----5--5-----5--5-----5--| 
-----x--x-----x--x-----x--|-----5--5-----5--5-----5--| 
-----2--2-----2--2-----2--|-----x--x-----x--x-----x--| 
-----0--0-----0--0-----0--|-----3--3-----3--3-----3--| 
--------------------------|--------------------------| 


  E  E  E  E  E  E  E  E     E  E  E  E  E  E  E  E    
--------------------------|--8--L--L--8--L--L--7--L--| 
-----3--3-----3--5-----5--|-----8--8--L--8--8--L--8--| 
-----0--0-----0--0-----0--|--------------------------| 
-----0--0-----0--0-----0--|--------------------------| 
--------------------------|--------------------------| 
--------------------------|--------------------------| 


  E  E  E  E  E  E  E  E     E  E  E  E  E  E  E  E    
--L--L--7--L--L--L--7--8--|--L--0--0--0--0--0--0--0--| 
--L--8--L--8--L--8--L-----|-----5--5--5--5--5--5--5--| 
--7--L--L--L--7--L--L-----|--------------------------| 
--------------------------|--------------------------| 
--------------------------|--------------------------| 
--------------------------|--------------------------| 


  E  E  E  E  E  E  E  E     E  E  E  E  E  E  E  E    
--0--0--0--0--0--0--0--0--|--------------------------| 
--5--3--3--3--3--3--3--3--|--5--5--5--5--5--5--8--L--| 
--------------------------|--5--5--5--5--5--5--L--5--| 
--------------------------|--------------------------| 
--------------------------|--------------------------| 
--------------------------|--------------------------| 


  E  E  E  E  E  E  Q         E   E   E   E   E   E   E   E    
--------------------------|----------------------------------| 
--8--L--8--L--8--L--------|--13--13--13--13--13--13--13--13--| 
--L--5--L--5--L--5--5S----|--12--12--12--12--12--12--12--12--| 
--------------------------|----------------------------------| 
--------------------------|----------------------------------| 
--------------------------|----------------------------------| 


   E   E   E   E   E   E   E   E      E  E  E  E  E  E  E  E    
----------------------------------|---------------------------| 
--15--15--15--15--15--15--15--15--|--13--L--L--L--L--L-----0--| 
--12--12--12--12--12--12--12--12--|--12--L--L--L--L--L--5-----| 
----------------------------------|---------------------------| 
----------------------------------|---------------------------| 
----------------------------------|---------------------------| 


  W                   Q.     Q.     Q       Q.     Q.     Q      
--3----------------|---------------------|---------------------| 
--L----------------|--3------5-----------|---------------------| 
--L----------------|----------------5----|--4------5------4----| 
-------------------|---------------------|---------------------| 
-------------------|---------------------|---------------------| 
-------------------|---------------------|---------------------| 


  Q.     Q.     Q       Q    E  E  H           E  E  E  E  E  E  E  E    
---------------------|----------------------|--------------------------| 
---------------------|----------------------|--------------------------| 
--4------5-----------|----------------------|--2--2--2--2--4--4--4--4--| 
----------------7----|--L----5--L--L--------|--------------------------| 
---------------------|----------------------|--0--0--0--0--2--2--2--2--| 
---------------------|----------------------|--------------------------| 


  E  E  E  E  E  E  E  E      E   E   E   E   E   E   E   E    
--------------------------|----------------------------------| 
--------------8--8--8--8--|--10--10--10--10--10--10--10--10--| 
--5--5--5--5--------------|----------------------------------| 
--------------5--5--5--5--|---7---7---7---7---7---7---7---7--| 
--3--3--3--3--------------|----------------------------------| 
--------------------------|----------------------------------| 


   E   E   E   E   E   E   E   E      E   E   E   E   E   E   E   E    
----------------------------------|----------------------------------| 
--10--10--10--10--12--12--12--12--|--13--13--13--13--13--13--13--13--| 
----------------------------------|----------------------------------| 
---7---7---7---7---9---9---9---9--|--10--10--10--10--10--10--10--10--| 
----------------------------------|----------------------------------| 
----------------------------------|----------------------------------| 


   E   E   E   E  E  E  E  E     E  E  E  E  E  E  E  E    
------------------------------|--------------------------| 
--12--12--12--12--8--8--8--8--|--------------------------| 
------------------------------|--9--9--9--9--9--9--9--9--| 
--10--10--10--10--5--5--5--5--|--------------------------| 
------------------------------|--7--7--7--7--7--7--7--7--| 
------------------------------|--------------------------| 


  E  E  E  E   E   E   E   E     E  E  E  E  E  E  E  E    
------------------------------|--------------------------| 
------------------------------|--------------------------| 
--9--9--9--9--10--10--10--10--|--9--9--9--9--9--9--9--9--| 
------------------------------|--------------------------| 
--7--7--7--7---8---8---8---8--|--7--7--7--7--7--7--7--7--| 
------------------------------|--------------------------| 


  E  E  E  E  E  E  E  E      E   E   E   E   E   E   E   E    
--------------------------|----------------------------------| 
--------------------------|--10--10--10--10--10--10--10--10--| 
--7--7--7--7--7--7--7--7--|----------------------------------| 
--------------------------|---7---7---7---7---7---7---7---7--| 
--5--5--5--5--5--5--5--5--|----------------------------------| 
--------------------------|----------------------------------| 


   E   E   E   E   E   E   E   E      E   E   E   E   E   E   E   E    
----------------------------------|----------------------------------| 
--10--10--10--10--12--12--12--12--|--13--13--13--13--13--13--13--13--| 
----------------------------------|----------------------------------| 
---7---7---7---7---9---9---9---9--|--10--10--10--10--10--10--10--10--| 
----------------------------------|----------------------------------| 
----------------------------------|----------------------------------| 


   E   E   E   E  E  E  E  E      E   E   E   E   E   E   E   E    
------------------------------|----------------------------------| 
--12--12--12--12--8--8--8--8--|--13--13--13--13--13--13--13--13--| 
------------------------------|----------------------------------| 
--10--10--10--10--5--5--5--5--|--10--10--10--10--10--10--10--10--| 
------------------------------|----------------------------------| 
------------------------------|----------------------------------| 


   E   E   E   E   E   E   E   E      E   E   E   E   E   E   E   E    
----------------------------------|----------------------------------| 
--13--13--13--13------------------|--13--13--13--13--13--13--13--13--| 
------------------12--12--12--12--|----------------------------------| 
--10--10--10--10--12--12--12--12--|--10--10--10--10--10--10--10--10--| 
----------------------------------|----------------------------------| 
----------------------------------|----------------------------------| 


   E   E   E   E   E   E   E   E      Q    Q     E  E  E  S S   
----------------------------------|---------------------------| 
--12--12--12--12--12--12--12--12--|--10----L\-----------------| 
----------------------------------|---------------------------| 
---9---9---9---9---9---9---9---9--|---7----L\----x--x-----x-x-| 
----------------------------------|--------------x--x-----x-x-| 
----------------------------------|--------------x--x-----x-x-| 


              PM PM PM PM                               
   Q    Q     E  E  E  E      Q    Q     E  E  E  S S   
--------------------------|---------------------------| 
--10----L\----------------|--10----L\-----------------| 
--------------------------|---------------------------| 
---7----L\----3--3--3--3--|---7----L\----x--x-----x-x-| 
--------------3--3--3--3--|--------------x--x-----x-x-| 
--------------3--3--3--3--|--------------x--x-----x-x-| 


                                PM PM PM PM PM PM PM   
  E  E  E  E  E  E  E  E     E  E  E  E  E  E  E  E    
--------------------------|--------------------------| 
--------8-----------------|--------8-----8--------8--| 
--7--9-----0--5--4--4--0--|-----9-----9-----9--9-----| 
--------------------------|--------------------------| 
--------------------------|--------------------------| 
--------------------------|--------------------------| 


     PM PM PM PM PM PM PM       PM PM PM PM PM PM PM   
  E  E  E  E  E  E  E  E     E  E  E  E  E  E  E  E    
--------------------------|--------------------------| 
--------8-----8--------8--|--------8-----8--------8--| 
-----9-----9-----9--9-----|-----9-----9-----9--9-----| 
--------------------------|--------------------------| 
--------------------------|--------------------------| 
--------------------------|--------------------------| 


  PM  PM PM PM PM PM PM PM       PM PM PM PM PM PM PM   
  E   E  E  E  E  E  E  E     E  E  E  E  E  E  E  E    
-----10--------8-----------|--------------------------| 
---------8--------8-----8--|--------8-----8--------8--| 
--9---------9--------9-----|-----9-----9-----9--9-----| 
---------------------------|--------------------------| 
---------------------------|--------------------------| 
---------------------------|--------------------------| 


     PM PM PM PM PM PM PM       PM PM PM PM PM PM PM   
  E  E  E  E  E  E  E  E     E  E  E  E  E  E  E  E    
--------------------------|--------------------------| 
--------8-----8--------8--|--------8-----8--------8--| 
-----9-----9-----9--9-----|-----9-----9-----9--9-----| 
--------------------------|--------------------------| 
--------------------------|--------------------------| 
--------------------------|--------------------------| 


  PM  PM PM PM                                          
  E   E  E  E  E  E  E  E     E  E  E  E  E  E  E  E    
-----10--------8-----------|--8--L--L--8--L--L--7--L--| 
---------8--------8-----8--|-----8--8--L--8--8--L--8--| 
--9---------9--------9-----|--------------------------| 
---------------------------|--------------------------| 
---------------------------|--------------------------| 
---------------------------|--------------------------| 


  E  E  E  E  E  E  E  E     E  E  E  E  E  E  E  E    
--L--L--7--L--L--L--7--8--|--L--0--0--0--0--0--0--0--| 
--L--8--L--8--L--8--L-----|-----5--5--5--5--5--5--5--| 
--7--L--L--L--7--L--L-----|--------------------------| 
--------------------------|--------------------------| 
--------------------------|--------------------------| 
--------------------------|--------------------------| 


  E  E  E  E  E  E  E  E     E  E  E  E  E  E  E  E    
--0--0--0--0--0--0--0--0--|--------------------------| 
--5--3--3--3--3--3--3--3--|--5--5--5--5--5--5--8--L--| 
--------------------------|--5--5--5--5--5--5--L--5--| 
--------------------------|--------------------------| 
--------------------------|--------------------------| 
--------------------------|--------------------------| 


  E  E  E  E  E  E  Q         E   E   E   E   E   E   E   E    
--------------------------|----------------------------------| 
--8--L--8--L--8--L--------|--13--13--13--13--13--13--13--13--| 
--L--5--L--5--L--5--5S----|--12--12--12--12--12--12--12--12--| 
--------------------------|----------------------------------| 
--------------------------|----------------------------------| 
--------------------------|----------------------------------| 


   E   E   E   E   E   E   E   E      E  E  E  E  E  E  E  E    
----------------------------------|---------------------------| 
--15--15--15--15--15--15--15--15--|--13--L--L--L--L--L-----0--| 
--12--12--12--12--12--12--12--12--|--12--L--L--L--L--L--5-----| 
----------------------------------|---------------------------| 
----------------------------------|---------------------------| 
----------------------------------|---------------------------| 


  W                   Q.     Q.     Q       Q.     Q.     Q      
--3----------------|---------------------|---------------------| 
--L----------------|--3------5-----------|---------------------| 
--L----------------|----------------5----|--4------5------4----| 
-------------------|---------------------|---------------------| 
-------------------|---------------------|---------------------| 
-------------------|---------------------|---------------------| 


  Q.     Q.     Q       Q    E  E  H           E  E  E  E  E  E  E  E    
---------------------|----------------------|--------------------------| 
---------------------|----------------------|--------------------------| 
--4------5-----------|----------------------|--2--2--2--2--4--4--4--4--| 
----------------7----|--L----5--L--L--------|--------------------------| 
---------------------|----------------------|--0--0--0--0--2--2--2--2--| 
---------------------|----------------------|--------------------------| 


  E  E  E  E  E  E  E  E      E   E   E   E   E   E   E   E    
--------------------------|----------------------------------| 
--------------8--8--8--8--|--10--10--10--10--10--10--10--10--| 
--5--5--5--5--------------|----------------------------------| 
--------------5--5--5--5--|---7---7---7---7---7---7---7---7--| 
--3--3--3--3--------------|----------------------------------| 
--------------------------|----------------------------------| 


   E   E   E   E   E   E   E   E      E   E   E   E   E   E   E   E    
----------------------------------|----------------------------------| 
--10--10--10--10--12--12--12--12--|--13--13--13--13--13--13--13--13--| 
----------------------------------|----------------------------------| 
---7---7---7---7---9---9---9---9--|--10--10--10--10--10--10--10--10--| 
----------------------------------|----------------------------------| 
----------------------------------|----------------------------------| 


   E   E   E   E  E  E  E  E     E  E  E  E  E  E  E  E    
------------------------------|--------------------------| 
--12--12--12--12--8--8--8--8--|--------------------------| 
------------------------------|--9--9--9--9--9--9--9--9--| 
--10--10--10--10--5--5--5--5--|--------------------------| 
------------------------------|--7--7--7--7--7--7--7--7--| 
------------------------------|--------------------------| 


  E  E  E  E   E   E   E   E     E  E  E  E  E  E  E  E    
------------------------------|--------------------------| 
------------------------------|--------------------------| 
--9--9--9--9--10--10--10--10--|--9--9--9--9--9--9--9--9--| 
------------------------------|--------------------------| 
--7--7--7--7---8---8---8---8--|--7--7--7--7--7--7--7--7--| 
------------------------------|--------------------------| 


  E  E  E  E  E  E  E  E      E   E   E   E   E   E   E   E    
--------------------------|----------------------------------| 
--------------------------|--10--10--10--10--10--10--10--10--| 
--7--7--7--7--7--7--7--7--|----------------------------------| 
--------------------------|---7---7---7---7---7---7---7---7--| 
--5--5--5--5--5--5--5--5--|----------------------------------| 
--------------------------|----------------------------------| 


   E   E   E   E   E   E   E   E      E   E   E   E   E   E   E   E    
----------------------------------|----------------------------------| 
--10--10--10--10--12--12--12--12--|--13--13--13--13--13--13--13--13--| 
----------------------------------|----------------------------------| 
---7---7---7---7---9---9---9---9--|--10--10--10--10--10--10--10--10--| 
----------------------------------|----------------------------------| 
----------------------------------|----------------------------------| 


   E   E   E   E  E  E  E  E      E   E   E   E   E   E   E   E    
------------------------------|----------------------------------| 
--12--12--12--12--8--8--8--8--|--13--13--13--13--13--13--13--13--| 
------------------------------|----------------------------------| 
--10--10--10--10--5--5--5--5--|--10--10--10--10--10--10--10--10--| 
------------------------------|----------------------------------| 
------------------------------|----------------------------------| 


   E   E   E   E   E   E   E   E      E   E   E   E   E   E   E   E    
----------------------------------|----------------------------------| 
--13--13--13--13------------------|--13--13--13--13--13--13--13--13--| 
------------------12--12--12--12--|----------------------------------| 
--10--10--10--10--12--12--12--12--|--10--10--10--10--10--10--10--10--| 
----------------------------------|----------------------------------| 
----------------------------------|----------------------------------| 


   E   E   E   E   E   E   E   E      Q    Q     E  E  E  S S   
----------------------------------|---------------------------| 
--12--12--12--12--12--12--12--12--|--10----L\-----------------| 
----------------------------------|---------------------------| 
---9---9---9---9---9---9---9---9--|---7----L\----x--x-----x-x-| 
----------------------------------|--------------x--x-----x-x-| 
----------------------------------|--------------x--x-----x-x-| 


              PM PM PM PM                               
   Q    Q     E  E  E  E      Q    Q     E  E  E  S S   
--------------------------|---------------------------| 
--10----L\----------------|--10----L\-----------------| 
--------------------------|---------------------------| 
---7----L\----3--3--3--3--|---7----L\----x--x-----x-x-| 
--------------3--3--3--3--|--------------x--x-----x-x-| 
--------------3--3--3--3--|--------------x--x-----x-x-| 


  E  E  E  E  E  E  E  E      E   E   E  E  E  E  E  E    
--------------------------|-----------------------------| 
--------8-----------------|--10--10--10--8--8-----------| 
--7--9-----0--5--4--4--0--|--------------------7--9--9--| 
--------------------------|---7---7---7--5--5-----------| 
--------------------------|--------------------5--7--7--| 
--------------------------|-----------------------------| 


   E   E   E  E  E  E  E  E      E   E   E  E  E  E  E  E    
-----------------------------|-----------------------------| 
--10--10--10--8--8-----------|--10--10--10--8--8-----------| 
--------------------7--9--9--|--------------------7--9--9--| 
---7---7---7--5--5-----------|---7---7---7--5--5-----------| 
--------------------5--7--7--|--------------------5--7--7--| 
-----------------------------|-----------------------------| 


   E   E   E   E  E   E  E  E      E   E   E  E  E  E  E  E    
-------------------------------|-----------------------------| 
--13--13--13--13---------------|--10--10--10--8--8-----------| 
------------------9--10--9--7--|--------------------7--9--9--| 
--10--10--10--10---------------|---7---7---7--5--5-----------| 
------------------7---8--7--5--|--------------------5--7--7--| 
-------------------------------|-----------------------------| 


   E   E   E  E  E  E  E  E      E   E   E   E  E  E  E  E    
-----------------------------|------------------------------| 
--10--10--10--8--8-----------|--10--10--10--10--------------| 
--------------------7--9--9--|------------------7--9--9--9--| 
---7---7---7--5--5-----------|---7---7---7---7--------------| 
--------------------5--7--7--|------------------5--7--7--7--| 
-----------------------------|------------------------------| 


  E  E  E  E  E  E  E  E      E   E   E   E   Q     E   E    
--------------------------|----------15--------------------| 
--------------------------|--------------13--13------------| 
--7--7--7--7--7--7--7--7--|--12--14----------------12--14--| 
--------------------------|--------------------------------| 
--5--5--5--5--5--5--5--5--|--------------------------------| 
--------------------------|--------------------------------| 


   E   E   Q     E   E   E   E      E   E   E   E   Q     E   E    
--15----------------------------|----------15--------------------| 
------13--13----12--13--12------|--------------13--13------------| 
----------------------------14--|--12--14----------------12--14--| 
--------------------------------|--------------------------------| 
--------------------------------|--------------------------------| 
--------------------------------|--------------------------------| 


   E   E   Q     E   E   E   E      E   E   E   E   Q     E   E    
--15------------12--13--12------|----------15--------------------| 
------13--13----------------15--|--------------13--13------------| 
--------------------------------|--12--14----------------12--14--| 
--------------------------------|--------------------------------| 
--------------------------------|--------------------------------| 
--------------------------------|--------------------------------| 


   E   E   Q     E   E   E   E      W                    W                  
--15----------------------------|--------------------|--------------------| 
------13--13----12--13--12------|--------------------|--------------------| 
----------------------------14--|--12----------------|--13----------------| 
--------------------------------|--------------------|--------------------| 
--------------------------------|--------------------|--------------------| 
--------------------------------|--------------------|--------------------| 


  H        H                                   E  E  E  E  E  E  E  E    
--------------------|-----------|-----------|--------------------------| 
--------------------|-----------|-----------|--------------------------| 
--L-----------------|-----------|-----------|--------------------------| 
--------------------|-----------|-----------|-----------5--5-----------| 
--------------------|-----------|-----------|-----------------5--7--7--| 
--------------------|-----------|-----------|--5--5--5-----------------| 


  Q     E  E  E  E  E  E     E  E  E  E   E   E   E   E    
--------------------------|------------------------------| 
--------------------------|------------------------------| 
--------9--9--9--9--9--9--|--9--9--9--9--10--10--10--10--| 
--------------------------|------------------------------| 
--7\----7--7--7--7--7--7--|--7--7--7--7---8---8---8---8--| 
--------------------------|------------------------------| 


  E  E  E  E  E  E  E  E     E  E  E  E  E  E  E  E    
--------------------------|--------------------------| 
--------------------------|--------------------------| 
--9--9--9--9--9--9--9--9--|--7--7--7--7--7--7--7--7--| 
--------------------------|--------------------------| 
--7--7--7--7--7--7--7--7--|--5--5--5--5--5--5--5--5--| 
--------------------------|--------------------------| 


   E   E   E   E   E   E   E   E      E   E   E   E   E   E   E   E    
----------------------------------|----------------------------------| 
--10--10--10--10--10--10--10--10--|--10--10--10--10--12--12--12--12--| 
----------------------------------|----------------------------------| 
---7---7---7---7---7---7---7---7--|---7---7---7---7---9---9---9---9--| 
----------------------------------|----------------------------------| 
----------------------------------|----------------------------------| 


   E   E   E   E   E   E   E   E      E   E   E   E  E  E  E  E    
----------------------------------|------------------------------| 
--13--13--13--13--13--13--13--13--|--12--12--12--12--8--8--8--8--| 
----------------------------------|------------------------------| 
--10--10--10--10--10--10--10--10--|--10--10--10--10--5--5--5--5--| 
----------------------------------|------------------------------| 
----------------------------------|------------------------------| 


   E   E   E   E   E   E   E   E      E   E   E   E   E   E   E   E    
----------------------------------|----------------------------------| 
--13--13--13--13--13--13--13--13--|--13--13--13--13------------------| 
----------------------------------|------------------12--12--12--12--| 
--10--10--10--10--10--10--10--10--|--10--10--10--10--12--12--12--12--| 
----------------------------------|----------------------------------| 
----------------------------------|----------------------------------| 


   E   E   E   E   E   E   E   E      E   E   E   E   E   E   E   E    
----------------------------------|----------------------------------| 
--13--13--13--13--13--13--13--13--|--12--12--12--12--12--12--12--12--| 
----------------------------------|----------------------------------| 
--10--10--10--10--10--10--10--10--|---9---9---9---9---9---9---9---9--| 
----------------------------------|----------------------------------| 
----------------------------------|----------------------------------| 


                                          PM PM PM PM   
   Q    Q     E  E  E  S S     Q    Q     E  E  E  E    
---------------------------|--------------------------| 
--10----L\-----------------|--10----L\----------------| 
---------------------------|--------------------------| 
---7----L\----x--x-----x-x-|---7----L\----3--3--3--3--| 
--------------x--x-----x-x-|--------------3--3--3--3--| 
--------------x--x-----x-x-|--------------3--3--3--3--| 


   Q    Q     E  E  E  S S    E  E  E  E  E  E  E  E    
---------------------------|--------------------------| 
--10----L\-----------------|--------------------------| 
---------------------------|--------------------------| 
---7----L\----x--x-----x-x-|-----------5--5--0--------| 
--------------x--x-----x-x-|--------------------7--7--| 
--------------x--x-----x-x-|--3--3--3-----------------| 


  E  E  E  E  E  E  E  E     H        Q    Q                
--------------------------|----------------------|-------|| 
--------------------------|----------------------|-------|| 
--------------------------|----------------------|-------|| 
-----------5--5--0--------|--7--------L----L\----|-------|| 
--------------------7--7--|--7--------L----L\----|-------|| 
--5--5--5-----------------|--7--------L----L\----|-------|| 


Duration Legend 
--------------- 
W - whole 
H - half 
Q - quarter 
E - 8th 
S - 16th 
T - 32nd 
X - 64th 
. - note dotted 
|-n-|  - n-tuplets 


Tablature Legend 
---------------- 
L - tied note 
x - dead note 
g - grace note 
(n) - ghost note 
> - accentuded note 
NH - natural harmonic 
AH - artificial harmonic 
TH - tapped harmonic 
SH - semi harmonic 
PH - pitch harmonic 
h - hammer on 
p - pull off 
b - bend 
br - bendRelease 
pb - preBend 
pbr - preBendRelease 
brb - bendReleaseBend 
\n/ - tremolo bar dip 
\n - tremolo bar dive 
-/n - tremolo bar Release up 
/n\ - tremolo bar inverted dip 
/n - tremolo bar return 
-\n - tremolo bar Release down 
S - shift slide 
s - legato slide 
/ -  slide into from below or out of upwards 
\ -  slide into from above or out of downwards 
~ - vibrato 
W - wide vibrato 
tr - trill 
TP - tremolo picking 
T - tapping 
S - slap 
P - pop 
< - fade in 
^ - brush up 
v - brush down 


That is all! I hope this helped, and be sure to check out my cover if you are 
having problems with the tab. Thanks, oh and one last thing... ROCK OUT!!!! 
		  

See also:

chords Mazzy Star - Fade into you chords Regina Spektor - The Call chords Miley Cyrus - Angels Like You chords Rihanna - Umbrella chords Richard Clayderman - Ballade Pour Adeline chords Miley Cyrus - The Climb
e-chords

Other versions:

chords Glen Phillips - Best Of Me chords The Starting Line - Best Of Me chords Daniel Powter - Best Of Me chords Jeff Buckley - Best Of Me chords Sum 41 - Best Of Me chords Christina Aguilera - Best Of Me
auto scroll beats size up size down change color hide chords simplify chords drawings columns
tab show chords e-chords YouTube Clip e-chords hide all tabs e-chords go to top tab

share