Polvo

Monolith

Polvo

cavaco

by  TERR_SCHMITZ

save to print version add songbook text version e-mail correct tuner
chordsukulelecavacokeyboardtabbassdrumsharmonicaflute Guitar Pro
close

there isn't a video lesson for this song

chords

Monolith

	  		
Tuning: GGBBBd# 


D#---------(1)------------ 
B----------(2)------------  
B----------(3)------------  
B----------(4)------------  
G----------(5)------------  
G----------(6)------------ 




Part 1 
------ 

D#-----------------------------------------------------|  
B------------------------------------------------------|  
B-----2-4s5-4---4-------4-------5----------------------|  
B-3h4--------5--------5---5s7--------------------------|  
G-------------2---2s4---------0------------------------|  
G------------------------------------------------------| 





Part 2 
------ 

D#-----------------------------------------------------| 
B------------------------------------------------------| 
B-----5-7s9-7------11-----5-7s9-7------12--------------|  
B-5s7---------9s12----5s7---------9s12-----------------| 
G------------------------------------------------------|  
G------------------------------------------------------| 

Variation 

D#-----------------------------------------------------|  
B------------------------------------------------------|  
B-----5------------------------------------------------|  
B-5s7---7s9-7---14~------------------------------------|  
G-------------9s12~------------------------------------|  
G------------------------------------------------------| 




Part 3 
------ 

D#------------------------------------------------------|  
B-------------------------------------------------------|  
B-----5-------------------------------------------------|  
B-5s7---7s9---------------------------------------------|  
G-----------7s9-4s7-0-----------------------------------|  
G-------------------0-----------------------------------|  
		  

See also:

e-chords

Other versions:

auto scroll beats size up size down change color columns
tab show chords e-chords YouTube Clip e-chords hide all tabs e-chords go to top tab