Luis Alberto Spinetta

home > Luis Alberto Spine...

El Lenguaje Del Cielo Banjo

Luis Alberto Spinetta

Difficulty: nolevelnolevel

by tarikike

tuner correct add songbook print version text version save to e-mail
chordsukulelecavacokeyboardtabbassdrumsharmonicsflute Guitar Pro
chords

El Lenguaje Del Cielo

(Luis Alberto Spinetta)

  		e---------------------------------- 
b----------------5-7-----5--5---3-- 
g-------4-—6--7-------4--6------4--  riff 
d----7-------------------6---7--5-- 
a-7-------------------------------- 
E---------------------------------- 
 Las horas caen llevándose esta vez, 
G#m7/11       C#7/9+-C#7/b9 F#m7 
todo lo que el viento me habló, 
riff 
eterno el día sin esperar, ya volvió 
  G#m7/11  C#7/9+-C#7/b9   F#m7 
con tu cielo que se abre en dos. 

d-6-7--9- 
a-------- 
E-4-5--7- 
          Amaj7 
  Niño precioso, 
         Dmaj7/9  Amaj7 
que no entiende nada ya, 
          Dmaj7 
cuando apareces, 
        Bm7        Dmaj7 
tu energía es tan diáfana... 
  Bm7      D7/9                C#m7/9+   F#m7/4 
escóndeme antes de que mire el mundo... 

riff 
La soledad no habrá de cambiar, mi querer 
G#m7/11       C#7/9+-C#7/b9  F#m7 
Ni en la ambición su mundo lo hará, 

e-------------------------------------- 
b----------------5--7------5---5----3-- 
g-------4-—6--7--------4---6--------4--  riff1 
d----7---------------------6----7---4-- 
a-7------------------------------------ 
E-------------------------------------- 
 Yo se que acaso podrás sentir ese ardor 
G#m7/11 C#7/9+-C#7/b9 F#m7 
Otra vez el mismo amor 

d-6-7--9- 
a-------- 
E-4-5--7- 
          Amaj7 
  Niño precioso, 
         Dmaj7/9  Amaj7 
que no entiende nada ya, 
          Dmaj7 
cuando apareces, 
        Bm7        Dmaj7 
tu energía es tan diáfana... 
  Bm7      D7/9                C#m7/9+   F#m7/4 
escóndeme antes de que mire el mundo... 

e---------------------------------5—-4----------------------- 
b------------------------5—-7--5---------5------5------------ 
g--------------4—-6---7--------------------- 6------7----7--- riff2 
d----7-----7--------------------------------------------7---- 
a-7----7----------------------------------------------------- 
E------------------------------------------------------7----- 
                                                                 G6 
 Yo sé, yo sé que acaso entiendes el lenguaje del cielo... 
      Bbm7/A              G#m7 
"Y te recompensará con su sal el mar.... 
      Bbm7/A              G#m7 
y solo eso será, solo eso será... 
        Bbm7/A 
y de tu boca saldrá, 
    G#m7 
la oveja del agua... 
      Bbm7/A 
y solo eso será, 
     G#m7 
solo eso será... 
           Bbm7/A 
y es que al fin, 
     Ebm7/4      G9  A/C# 
así libre serás ah !!! " 

e----------------------------5—-4------------------ 
b-------------------5--7--5--------5-----5-5------- 
g--------4—-6--7----------------------6------7--7--  riff3 
d----7------------------------------------------7-- 
a-7------------------------------------------------ 
E-----------------------------------------------7-- 
 Yo sé, que acaso entiendes el lenguaje del cielo... 

riff 
Las horas caen, llevándose esta vez, 
G#m7/11    C#7/9+-C#7/b9  F#m7 
todo lo que el viento me habló... 
Riff1 
la soledad no habrá de cambiar, mi querer 
G#m7/11 C#7/9+-C#7/b9 F#m7 
esta vez oh ! 


d-6-7--9- 
a-------- 
E-4-5--7- 
          Amaj7 
  Niño precioso, 
         Dmaj7/9  Amaj7 
que no entiende nada ya, 
g-6-7--9- 
d-6-7--9- 
a-------- 
E-5-7--9- 
          Dmaj7 
cuando apareces, 
        Bm7        Dmaj7 
tu energía es tan diáfana... 
  Bm7      D7/9                C#m7/9+   F#m7/4 
escóndeme antes de que mire el mundo... 

e----------------------------5—-4-------------------0--- 
b-------------------5--7--5--------5-----5---------3--3- 
g--------4—-6--7----------------------6-----7-----0----- riff4 
d----7-------------------------------------------4------ 
a-7---------------------------------------------2------- 
E------------------------------------------------------- 
 Yo sé, que acaso entiendes el lenguaje del cielo... 

	  

Full key step upFull key step up
Half key step upHalf key step up
Half key step downHalf key step down
Full key step downFull key step down
Search Paypal
auto scroll beats size up size down change color columns
tab show chords e-chords YouTube Clip e-chords hide all tabs e-chords go to top tab