Even As We Speak

Outgrown This Town

Even As We Speak

cavaco

by  RENEJUNIOR

save to print version add songbook text version e-mail correct tuner
chordsukulelecavacokeyboardtabbassdrumsharmonicaflute Guitar Pro
close

there isn't a video lesson for this song

chords

Outgrown This Town

	  		

                                   x3 
e|-----0-------0-------0-------0----| 
B|---------2-2---2-1-1---1-4-4---4--| 
G|-3-3---3--------------------------| 
D|----------------------------------| 
A|----------------------------------| 
E|----------------------------------| 

e|-----0-------0---0-|-6-8-9-6-4--4---4-6-|-6-8-9-6-4--4---4-9-6-| 
B|---------2-2---2---|--------------6-----|--------------6-------| 
G|-3-3---3---------5-|--------------------|----------------------| 
D|-------------------|--------------------|----------------------| 
A|-------------------|--------------------|----------------------| 
E|-------------------|--------------------|----------------------| 

e|-6-8-9-6-4--4---4---|------------------|-9-9-9-8-8-8-6-6-6-4-----6--| 
B|--------------6---6-|-7-6-7-6--4-6-4---|---------------------6-6----| 
G|--------------------|----------------3-|----------------------------| 
D|--------------------|------------------|----------------------------| 
A|--------------------|------------------|----------------------------| 
E|--------------------|------------------|----------------------------| 

e|-6-8-9-9-9-8-8-8-6-6-6-4-4-4----------| 
B|-----------------------------6-7-6----| 
G|-----------------------------------3--| 
D|--------------------------------------| 
A|--------------------------------------| 
E|--------------------------------------| 

e|-6-8-9-6-4--4---4-6-|-6-8-9-6-4--4---4-9-6-| 
B|--------------6-----|--------------6-------| 
G|--------------------|----------------------| 
D|--------------------|----------------------| 
A|--------------------|----------------------| 
E|--------------------|----------------------| 

e|-6-8-9-6-4--4---4---|------------------|-9-9-9-8-8-8-6-6-6-4-----6-| 
B|--------------6---6-|-7-6-7-6--4-6-4---|---------------------6-6---| 
G|--------------------|----------------3-|---------------------------| 
D|--------------------|------------------|---------------------------| 
A|--------------------|------------------|---------------------------| 
E|--------------------|------------------|---------------------------| 

e|-6-8-9-9-9-8-8-8-6-6-6-4-4-4-----------------| 
B|-----------------------------6-7-6---6-6-6-6-| 
G|-----------------------------------3---------| 
D|---------------------------------------------| 
A|---------------------------------------------| 
E|---------------------------------------------| 

e|-----------------------------------------------------8------| 
B|-6---6-6-6-7-6-4---4-4-4-6-4-2---2-2-2-4-2-1-2-1-2-1---6-6--| 
G|------------------------------------------------------------| 
D|------------------------------------------------------------| 
A|------------------------------------------------------------| 
E|------------------------------------------------------------| 

e|-6-8-9-6-4--4---4-6-|-6-8-9-6-4--4---4-9-6-| 
B|--------------6-----|--------------6-------| 
G|--------------------|----------------------| 
D|--------------------|----------------------| 
A|--------------------|----------------------| 
E|--------------------|----------------------| 

e|-6-8-9-6-4--4---4---|------------------|-9-9-9-8-8-8-6-6-6-4-----6-| 
B|--------------6---6-|-7-6-7-6--4-6-4---|---------------------6-6---| 
G|--------------------|----------------3-|---------------------------| 
D|--------------------|------------------|---------------------------| 
A|--------------------|------------------|---------------------------| 
E|--------------------|------------------|---------------------------| 

e|-6-8-9-9-9-8-8-8-6-6-6-4-4-4-----------------| 
B|-----------------------------6-7-6---6-6-6-6-| 
G|-----------------------------------3---------| 
D|---------------------------------------------| 
A|---------------------------------------------| 
E|---------------------------------------------| 

e|-----------------------------------------------| 
B|-----------------------------------------------| 
G|-----------------------------------------------| 
D|-6-6-6-6-4-4-4-4-6-6-6-6-4-4-4-4-6-6-6-6-6-6-6-| 
A|-----------------------------------------------| 
E|-----------------------------------------------| 

e|-9-11-12-9-7-7--7-9|-9-11-12-9-7-7---7-12-9----| 
B|--------------9----|---------------9-----------| 
G|-------------------|---------------------------| 
D|-------------------|---------------------------| 
A|-------------------|---------------------------| 
E|-------------------|---------------------------| 

e|-9-11-12-9-7-7---7---|--------------------| 
B|---------------9---9-|-10-9-10-9-7-9-7----| 
G|---------------------|-----------------6--| 
D|---------------------|--------------------| 
A|---------------------|--------------------| 
E|---------------------|--------------------| 

e|-12-12-12-11-11-11-9-9-9-7-7-7-9-|-12-12-12-11-11-11-9-9-9-7-7-7-----------| 
B|---------------------------------|-------------------------------9-10-9----| 
G|---------------------------------|--------------------------------------6--| 
D|---------------------------------|-----------------------------------------| 
A|---------------------------------|-----------------------------------------| 
E|---------------------------------|-----------------------------------------| 
		  

See also:

e-chords

Other versions:

auto scroll beats size up size down change color columns
tab show chords e-chords YouTube Clip e-chords hide all tabs e-chords go to top tab

share