Black Sabbath

home > Black Sabbath

God Is Dead? Banjo

Black Sabbath

Difficulty: ExpertExpert

by renejunior

tuner correct add songbook print version text version save to e-mail
chordsukulelecavacokeyboardtabbassdrumsharmonicsflute Guitar Pro
chords

God Is Dead?

Year: 2013 -

(Geezer Butler/ Ozzy Osbourne/ Tony Lommi)

  		
hide this tabHide
tab
--------------------------------------------------------------------| --------------------------------------------------------------------| -------0-------0-------0-------0-------0-------0--------0-------0---| -----9-------8-------9-------8-------9-------8-------10-------8-----| ---7-------7-------7-------7-------7-------7-------7--------7-------| -0-------0-------0-------0-------0-------0-------0--------0---------|
tab
hide this tabHide
tab
--------------------------------------------------------------------| --------------------------------------------------------------------| -------0-------0-------0-------0-------0-------0--------0-------0---| -----9-------8-------9-------8-------9-------8-------10-------8-----| ---7-------7-------7-------7-------7-------7-------7--------7-------| -0-------0-------0-------0-------0-------0-------0--------0---------|
tab
0:33
hide this tabHide
tab
--------------------------------------------------------------------| --------------------------------------------------------------------| --------------------------------------------------------------------| -7-9-----------7-9---11--12--------7-9-----------7-9---11--12-----7-| -5-7-----------5-7----9--10--------5-7-----------5-7----9--10-----5-| --------------------------------------------------------------------|
tab
~ ~
hide this tabHide
tab
-----------------------------------------------------------------------| -----------------------------------------------------------------------| -----------------------------------------------------------------------| -7-9-----------7-9---11--12--------7-9-----------7-9-------------------| -5-7-----------5-7----9--10--------5-7-----------5-7---9--8----5-------| -------------------------------------------------------7--6----3----0--|
tab
~ 1:04
hide this tabHide
tab
-------------------------------------------------------------------| -------------------------------------------------------------------| -------0-------0-------0-------0-------0-------0-------0-------0---| -----9-------8-------9-------8-------9-------8-------9-------8-----| ---7-------7-------7-------7-------7-------7-------7-------7-------| -0-------0-------0-------0-------0-------0-------0-------0---------|
tab
hide this tabHide
tab
---------------------------------| ---------------------------------| -------0-------0-------0---------| -----9-------8-------9-------8---| ---7-------7-------7-------7-----| -0-------0-------0-------0-------|
tab
1:28
hide this tabHide
tab
-------------------------------------------------------------------| -------------------------------------------------------------------| -------0-------0-------0-------0-------0-------0-------0-------0---| -----9-------8-------9-------8-------9-------8-------9-------8-----| ---7-------7-------7-------7-------7-------7-------7-------7-------| -0-------0-------0-------0-------0-------0-------0-------0---------|
tab
hide this tabHide
tab
-------------------------------------------------------------------| -------------------------------------------------------------------| -------0-------0-------0-------0-------0-------0-------0-------0---| -----9-------8-------9-------8-------9-------8-------9-------8-----| ---7-------7-------7-------7-------7-------7-------7-------7-------| -0-------0-------0-------0-------0-------0-------0-------0---------|
tab
hide this tabHide
tab
-------------------------------------------------------------------| -------------------------------------------------------------------| -------0-------0-------0-------0-------0-------0-------0-------0---| -----9-------8-------9-------8-------9-------8-------9-------8-----| ---7-------7-------7-------7-------7-------7-------7-------7-------| -0-------0-------0-------0-------0-------0-------0-------0---------|
tab
2:16
hide this tabHide
tab
-------------------------------------------------------| -------------------------------------------------------| -------------------------------------------------------| -5------5------5------5-5-5-5-4-------4---4------------| -3------3------3------3-3-3-3-2-------2---2-0-5----4---| ----------------------------------------------3----2---|
tab
hide this tabHide
tab
-------------------------------------------------------| -------------------------------------------------------| -------------------------------------------------------| -------------------------------------------------------| -------7-6-5---------------------7-6-5-----------------| -0---0-------7-6~--0-6-7~--0---0-------7-6~--0-6-5~----|
tab
hide this tabHide
tab
-------------------------------------------------------| -------------------------------------------------------| -------------------------------------------------------| -5------5------5------5-5-5-5-4-------4---4------------| -3------3------3------3-3-3-3-2-------2---2-0-5----4---| ----------------------------------------------3----2---|
tab
hide this tabHide
tab
--------------------------------------------------------| --------------------------------------------------------| --------------------------------------------------------| --------------------------------------------------------| -------7-6-5---------------------7-6-5------------------| -0---0-------7-6~--0-6-7~--0---0-------7-6~--0-6-5~---0-|
tab
2:49
hide this tabHide
tab
-------------------------------------------------------------------| -------------------------------------------------------------------| -------0-------0-------0-------0-------0-------0-------0-------0---| -----9-------8-------9-------8-------9-------8-------9-------8-----| ---7-------7-------7-------7-------7-------7-------7-------7-------| -0-------0-------0-------0-------0-------0-------0-------0---------|
tab
hide this tabHide
tab
-------------------------------------------------------------------| -------------------------------------------------------------------| -----------------------------------------0-------0-------0-------0-| -----5--------10-------5-------8-------9-------8-------9-------8---| ---7---7---/9----9---7---7---7---7---7-------7-------7-------7-----| -0-------0---------0-------0-------0-------0-------0-------0-------|
tab
hide this tabHide
tab
-------------------------------------------------------------------| -------------------------------------------------------------------| -----------------------------------------0-------0-------0-------0-| -----5--------10-------5-------8-------9-------8-------9-------8---| ---7---7---/9----9---7---7---7---7---7-------7-------7-------7-----| -0-------0---------0-------0-------0-------0-------0-------0-------|
tab
hide this tabHide
tab
-------------------------------------------------------------------| -------------------------------------------------------------------| -----------------------------------------0-------0-------0-------0-| -----5--------10-------5-------8-------9-------8-------9-------8---| ---7---7---/9----9---7---7---7---7---7-------7-------7-------7-----| -0-------0---------0-------0-------0-------0-------0-------0-------|
tab
hide this tabHide
tab
-------------------------------------| -------------------------------------| -------------------------------------| -----5--------10-------5-------8-----| ---7---7---/9----9---7---7---7---7---| -0-------0---------0-------0---------|
tab
4:03
hide this tabHide
tab
--------------------------------------------| --------------------------------------------| -----0-----------------------------6-7------| ---4---4-----5-----7----7----7-----4-5--7-6-| -3-------3---3-0-0-5----5----5-5-0------5\4-| --------------------------------------------|
tab
* * * * ~
hide this tabHide
tab
--------------------------------------------| --------------------------------------------| -----0-----------------------------6-7------| ---4---4-----5-----7----7----7-----4-5-7-6--| -3-------3---3-0-0-5----5----5-5-0-----5-4--| --------------------------------------------|
tab
* * * *
hide this tabHide
tab
-----------------------------------------| -----------------------------------------| -----0-----------------------------7-----| ---4---4-----5-----7----7----7--7--5--7--| -3-------3---3-0-0-5----5----5--5-----5--| -----------------------------------------|
tab
* * 4:27
hide this tabHide
tab
----------------------------------------------------------| ----------------------------------------------------------| ----------------------------------------------------------| --------9-12----------9-8----------9-12----------9-8------| --------7-10----------7-6----------7-10----------7-6------| -0--0-0--------0--0-0-------0--0-0--------0--0-0----------|
tab
~ ~ ~ ~
hide this tabHide
tab
----------------------------------------------------------| ----------------------------------------------------------| ----------------------------------------------------------| --------9-12----------9-8----------9-12----------9-8------| --------7-10----------7-6----------7-10----------7-6------| -0--0-0--------0--0-0-------0--0-0--------0--0-0----------|
tab
~ ~ ~ ~
hide this tabHide
tab
----------------------------------------------------------| ----------------------------------------------------------| ----------------------------------------------------------| --------9-12----------9-8----------9-12----------9-8------| --------7-10----------7-6----------7-10----------7-6------| -0--0-0--------0--0-0-------0--0-0--------0--0-0----------|
tab
~ ~ ~ ~
hide this tabHide
tab
----------------------------------------------------------| ----------------------------------------------------------| ----------------------------------------------------------| --------9-12----------9-8----------9-12----------9-8------| --------7-10----------7-6----------7-10----------7-6------| -0--0-0--------0--0-0-------0--0-0--------0--0-0----------|
tab
~ ~ ~ ~
hide this tabHide
tab
----------------------------------------------------------| ----------------------------------------------------------| ----------------------------------------------------------| --------9-12----------9-8----------9-12----------9-8------| --------7-10----------7-6----------7-10----------7-6------| -0--0-0--------0--0-0-------0--0-0--------0--0-0----------|
tab
~ ~ ~ ~
hide this tabHide
tab
----------------------------------------------------------| ----------------------------------------------------------| ----------------------------------------------------------| --------9-12----------9-8----------9-12----------9-8------| --------7-10----------7-6----------7-10----------7-6------| -0--0-0--------0--0-0-------0--0-0--------0--0-0----------|
tab
~ ~ ~ ~ 5:15
hide this tabHide
tab
-------------------------------------------------------| -------------------------------------------------------| -------------------------------------------------------| -5------5------5------5-5-5-5-4-------4---4------------| -3------3------3------3-3-3-3-2-------2---2-0-5----4---| ----------------------------------------------3----2---|
tab
hide this tabHide
tab
-------------------------------------------------------| -------------------------------------------------------| -------------------------------------------------------| -------------------------------------------------------| -------7-6-5---------------------7-6-5-----------------| -0---0-------7-6~--0-6-7~--0---0-------7-6~--0-6-5~----|
tab
hide this tabHide
tab
-------------------------------------------------------| -------------------------------------------------------| -------------------------------------------------------| -5------5------5------5-5-5-5-4-------4---4------------| -3------3------3------3-3-3-3-2-------2---2-0-5----4---| ----------------------------------------------3----2---|
tab
hide this tabHide
tab
--------------------------------------------------------| --------------------------------------------------------| --------------------------------------------------------| --------------------------------------------------------| -------7-6-5---------------------7-6-5------------------| -0---0-------7-6~--0-6-7~--0---0-------7-6~--0-6-5~--0--|
tab
5:48
hide this tabHide
tab
--------------------------------------------------------------------| --------------------------------------------------------------------| --------------------------------------------------------------------| -7-9-----------7-9---11--12--------7-9-----------7-9---11--12-----7-| -5-7-----------5-7----9--10--------5-7-----------5-7----9--10-----5-| --------------------------------------------------------------------|
tab
~ ~
hide this tabHide
tab
-----------------------------------------------------------------------| -----------------------------------------------------------------------| -----------------------------------------------------------------------| -7-9-----------7-9---11--12--------7-9-----------7-9-------------------| -5-7-----------5-7----9--10--------5-7-----------5-7---8--7----5-------| -------------------------------------------------------6--5----3----0--| ~ |
tab
6:19
hide this tabHide
tab
-------------------------------------------------------------------------| -------------------------------------------------------------------------| -------------------------------------------------------------------------| ------------5-----------------------------------5------------------------| ----7-5-7~----7-5----5------------------7-5-7~----7-5----5---------------| 0-0---------------7~---7-6-5~-0-3-5-0-0---------------7~---7-6-5~-0-3-5-0|
tab
B
hide this tabHide
tab
-------------------------------------------------------------------------| -------------------------------------------------------------------------| -------------------------------------------------------------------------| ------------5-----------------------------------5------------------------| ----7-5-7~----7-5----5------------------7-5-7~----7-5----5---------------| 0-0---------------7~---7-6-5~-0-3-5-0-0---------------7~---7-6-5~-0-3-5-0|
tab
6:35
hide this tabHide
tab
------------------------------------------------------------------| ------------------------------------------------------------------| ------------------------------------------------------------------| ------------------------------------------------------------------| -----5-------5------5-------7-8-------5-------5------5-------8-7--| -0-0-3---0-0-3--0-0-3---0-0-5/6---0-0-3---0-0-3--0-0-3---0-0-6\5--|
tab
* * * * * * * * * * * * * * * *
hide this tabHide
tab
------------------------------------------------------------------| ------------------------------------------------------------------| ------------------------------------------------------------------| ------------------------------------------------------------------| -----5-------5------5-------7-8-------5-------5------5-------8-7--| -0-0-3---0-0-3--0-0-3---0-0-5/6---0-0-3---0-0-3--0-0-3---0-0-6\5--|
tab
* * * * * * * * * * * * * * * *
hide this tabHide
tab
------------------------------------------------------------------| ------------------------------------------------------------------| ------------------------------------------------------------------| ------------------------------------------------------------------| -----5-------5------5-------7-8-------5-------5------5-------8-7--| -0-0-3---0-0-3--0-0-3---0-0-5/6---0-0-3---0-0-3--0-0-3---0-0-6\5--|
tab
* * * * * * * * * * * * * * * *
hide this tabHide
tab
------------------------------------------------------------------| ------------------------------------------------------------------| ------------------------------------------------------------------| ------------------------------------------------------------------| -----5-------5------5-------7-8-------5-------5------5-------8-7--| -0-0-3---0-0-3--0-0-3---0-0-5/6---0-0-3---0-0-3--0-0-3---0-0-6\5--|
tab
* * * * * * * * * * * * * * * * 7:06
hide this tabHide
tab
------------------------------------------------------------------------| ------------------------------------------------------------------------| ------------------------------------------------------------------------| ------------5-----------------------------------5-----------------------| ----7-5-7~----7-5----5------------------7-5-7~----7-5----5--------------| 0-0---------------7~---7-6-5~-0-3-5-0-0---------------7~---7-6-5~-0-3-5-|
tab
hide this tabHide
tab
------------------------------------------------------------------------| ------------------------------------------------------------------------| ------------------------------------------------------------------------| ------------5-----------------------------------5-----------------------| ----7-5-7~----7-5----5------------------7-5-7~----7-5----5--------------| 0-0---------------7~---7-6-5~-0-3-5-0-0---------------7~---7-6-5~-0-3-5-|
tab
7:22
hide this tabHide
tab
-----------------------------------------------------------------------| -----------------------------------------------------------------------| -----------------------------------------------------------------------| -9----11--12----12-14--7----7--9------9----11--12----12-14--7-----7--9-| -7-----9--10----10-12--5----5--7------7-----9--10----10-12--5-----5--7-| -----------------------------------------------------------------------|
tab
~ ~ ~ ~ SOLO PREVIOUS RIFF REPEATS DURING SOLO 7:38
hide this tabHide
tab
---------------------------------------------------------| -------------15-12~--\------)----)----)------------------| -----11--12---------------14---14---14---12--14--12------| -14-------------------------------------------------14~--| ---------------------------------------------------------| ---------------------------------------------------------| | | | | | |
tab
7:46
hide this tabHide
tab
----------------------------------------------__--------------------------| -15-15----15-15-13------------)--------------/ \-------------------------| /16-----16---16\14-14-12-14-14--14--12~----11-12-11----------12-----------| ---------------------------------------------------12--12-12----14-14--14~| -----------------------------------------------------14-------------------| --------------------------------------------------------------------------|
tab
| | | | 7:54
hide this tabHide
tab
------------------------------------------------------------------------| ------------------------------------------------------------------------| ------------------------------------------------------------------------| ------------5-----------------------------------5-----------------------| ----7-5-7~----7-5----5------------------7-5-7~----7-5----5--------------| 0-0---------------7~---7-6-5~-0-3-5-0-0---------------7~---7-6-5~-0-3-5-|
tab
hide this tabHide
tab
-------------------------------------------------------------------------| -------------------------------------------------------------------------| -------------------------------------------------------------------------| ------------5-----------------------------------5------------------------| ----7-5-7~----7-5----5------------------7-5-7~----7-5----5---------------| 0-0---------------7~---7-6-5~-0-3-5-0-0---------------7~---7-6-5~-0-3-5-0|
tab
8:10
hide this tabHide
tab
-------------------------------------------------------| -------------------------------------------------------| -------------------------------------------------------| -5------5------5------5-5-5-5-4-------4---4------------| -3------3------3------3-3-3-3-2-------2---2-0-5----4---| ----------------------------------------------3----2---|
tab
hide this tabHide
tab
-------------------------------------------------------| -------------------------------------------------------| -------------------------------------------------------| -------------------------------------------------------| -------7-6-5---------------------7-6-5-----------------| -0---0-------7-6~--0-6-7~--0---0-------7-6~--0-6-5~----|
tab
hide this tabHide
tab
-------------------------------------------------------| -------------------------------------------------------| -------------------------------------------------------| -5------5------5------5-5-5-5-4-------4---4------------| -3------3------3------3-3-3-3-2-------2---2-0-5----4---| ----------------------------------------------3----2---|
tab
hide this tabHide
tab
-------------------------------------------------------| -------------------------------------------------------| -------------------------------------------------------| -------------------------------------------------------| -------7-6-5---------------------7-6-5-----------------| -0---0-------7-6~--0-6-7~--0---0-------7-6~--0-6-5~----|
tab
hide this tabHide
tab
------------------------------------------------------| ------------------------------------------------------| ------------------------------------------------------| ------------------------------------------------------| -------7-6-5---------------------7-6-5---------8-7----| -0---0-------7-6~--0-6-7~--0---0-------7-6~--0-6-5----|
tab

Full key step upFull key step up
Half key step upHalf key step up
Half key step downHalf key step down
Full key step downFull key step down
Search Paypal
auto scroll beats size up size down change color columns
tab show chords e-chords YouTube Clip e-chords hide all tabs e-chords go to top tab