Yes

home > Yes

Owner of a Lonely Heart Bass Tab

Yes

Difficulty: nolevelnolevel

by Acelot

tuner correct add songbook print version text version save to e-mail
chordsukulelecavacokeyboardtabbassdrummharmonicsflute Guitar Pro
chords

Owner of a Lonely Heart

Year: 1983 - Album: Greatest Hits

(Trevor Rabin/ Chris Squire/ Trevor Horn)

	  
Intro:  


G|---------------------------------|  
D|---------------------------------|  
A|-0--2-3--5-5--------0--2-3--5-5--|  
E|--------------3-3----------------|  

G|-----5h7-5---------|  
D|-5h7-------7-5~----|  
A|-------------------|  
E|-------------------|  

verse 1:  

G|-------------------------------------|  
D|-------------------------------------|  
A|-0--2-3--5-5--------0--2-3--5-5------|  
E|--------------3-3----------------3-3-|  

Chorus 1:  

G|-------------------------------------|  
D|-------------------------------------|  
A|-0--2-3--5-5--------0--2-3--5-5------|  
E|--------------3-3----------------3-3-|  

G|----------------------------------|  
D|----------------------------------|  
A|-0--2-3--5-5--------0--2-3--5-5---|  
E|--------------3-3-----------------|  

verse 2:  

G|--------------------------------|  
D|--------------------------------|  
A|-0--2-3--5-5--------0--2-3--5-5-|  
E|--------------3-3---------------|  

G|-------------|  
D|-12/17-12/17-|  
A|-------------|  
E|-------------|  

G|--------------------------------|  
D|--------------------------------|  
A|-0--2-3--5-5--------0--2-3--5-5-|  
E|--------------3-3---------------|  

G|-----------------|  
D|-5h7-5~~--3------|  
A|-------------5-3-|  
E|-----------------|  


G|-----------------------------------------|  
D|---------------------------------5-------|  
A|-0--2-3--5-5--------0--2-3--5-5---------5|  
E|--------------3-3------------------3-3---|  

Chorus:  
G|-------------------------------------|  
D|-------------------------------------|  
A|-0--2-3--5-5--------0--2-3--5-5------|  
E|--------------3-3----------------3-3-|  

G|----------------------------------|  
D|----------------------------------|  
A|-0--2-3--5-5--------0--2-3--5-5---|  
E|--------------3-3-----------------|  

Bridge:  

G|---------------------------------------------------|  
D|-------2-------------------------2-----------------|  
A|---2h4---4-2-----------------2h4---4-2-------------|  
E|-5-----------5-3-0-5-3-0-3-5-----------5-3-0-5-3-0-| (2x)  

G|------------------------------------------------------|  
D|-------2-------------------------2--------------------|  
A|---2h4---4-2-----------------2h4---4-2----------------|  
E|-5-----------5-3-0-5-3-0-3-5-----------5-3-0-5-3-0---5|   

Solo:  

G|---------------------------------------------------------------|  
D|---------------------------------------------------------------|  
A|-0--2-3--5-5-------0--2-3--5-5-------0--2-3--5-5---0--2-3--5-5-|  
E|--------------3-3---------------3-3----------------------------|  

G|-------------------------------------------------|  
D|--5\4/5------------------------------------------|  
A|----------0--2-3--5-5--------0--2-3--5-5-------5-|  
E|--3\2/3----------------3-3----------------3-3----|  

Especial:  

G|--12/19--17\-14---9/14--12\-9--7\-5--|  
D|-------------------------------------|  
A|-------------------------------------|  
E|-------------------------------------|  

End:  

G|------------------------------------------------------|  
D|-------2-------------------------2--------------------|  
A|---2h4---4-2-----------------2h4---4-2----------------|  
E|-5-----------5-3-0-5-3-0-3-5-----------5-3-0-5-3---5--|(2x)  

G|------------------------------------------------|  
D|-------2-------------------------2------5--4--2-|  
A|---2h4---4-2-----------------2h4---4-2----------|  
E|-5-----------5-3-0-5-3-0-3-5------------3--2--0-|  

G|-------------------------------------------------------------|  
D|-------------------3-1---3-1---1----------------3-1----3-1---|  
A|---------3-------------3-----3-----------3----------3------3-|  
E|--1--3h5---5-3--------------------1--3h5---5-3---------------|  

G|-------------------------------------------------------------|  
D|-------------------3-1---3-1---1----------------3-1----3-1---|  
A|---------3-------------3-----3-----------3----------3--------|  
E|--1--3h5---5-3--------------------1--3h5---5-3---------------|  

	  

there isn't a video lesson for this song

request
Search
auto scroll beats size up size down change color hide chords drawings
tab show chords e-chords YouTube Clip e-chords hide all tabs e-chords go to top tab