Yellow Ostrich

Til I Disappear

Yellow Ostrich

bass

by  DEIVCAVALCANTI

save to print version add songbook text version e-mail correct tuner
chordsukulelecavacokeyboardtabbassdrumsharmonicaflute Guitar Pro
close

there isn't a video lesson for this song

chords

Til I Disappear

	  		
Intro (0:00-0:35) 
G|-----------| 
D|---------9-| 
A|-----------| 
E|-77777777--| 
  * Eight 7's followed by however many 9's 

Rest (0:35-2:15) 

Main Theme (2:15-4:19) 
G|-----------------------------------------------------------| 
D|-9---9---7-0---0h12---0h12p0------11-------------12-----12-| 
A|----------------------------9---9------9-10---10-----10----| 
E|-----------------------------------------------------------| 

Bridge (4:19-5:09) 
G|-----------------| 
D|-9---12----------| 
A|----------9---10-| 
E|-----------------| 
  * first time around starts on the 12, not 9, but the rest follows as is 
   
Rest (5:09-5:34) 

Lead Out (5:34-7:13) 
G|--------------------------------| 
D|--------------------------------| 
A|--------------------------------| 
E|-7---9---10---0---2---3---4---5-|  
		  

See also:

bass Collective Soul - December bass Delirious - Fire bass Madness - My Girl bass Placebo - Every You, Every Me bass Collective Soul - Shine bass Collective Soul - Untitled
e-chords

Other versions:

bass Yellow Ostrich - Til I Disappear
auto scroll beats size up size down change color hide chords drawings
tab show chords e-chords YouTube Clip e-chords hide all tabs e-chords go to top tab

share